Godsmack - Spiral Chords & Tabs

 

Spiral Chords & Tabs

Godsmack Chords & Tabs

Version: 1 Type: Tab 0 ratings
1 star 2 stars 3 stars 4 stars 5 stars
comments

Spiral Tab

------------------------------------------------------------
                   Spiral - Godsmack
------------------------------------------------------------

By:Kyle Whetzel

Dropped D & Down a half step

                   Intro/The Journey

                   (played Behind The Nut


D|---0--------------0 -------------------------------------|
A|-----0--------------0------------------------------------|
F|0------0--------0-----0----------------------------------|
C|------------------------0--------------------------------|
G|---------------------------------------------------------|
C|---------------------------------------------------------|

                     Verse

D|---------------------------------------------------------|
A|---------------------------------------------------------|
F|---------------------------------------------------------|
C|---------------------------------------------------------|
G|-----------------------0-----------------------0---------|
C|--0--13--0-0--13--12-0----0--13--0-0--13--12-------------|

                     Chorus
[ Tab from: http://www.guitartabs.cc/tabs/g/godsmack/spiral_tab.html ]
D|---------------------------------------------------------|
A|---------------------------------------------------------|
F|---------------------------------------------------------|
C|-5--5--5-5--0--1--1--1--1-3-----10--------8--7-----------|
G|-5--5--5-5--0--1--1--1--1-3--0---8--0--0--6--5--6--------|
C|-5--5--5-5--0--1--1--1--1-3--0------0--0--------6--------|

                     Solo

D|---------------------------------------------------------|
A|---10---11-10h11p10--------10---13-10h11p10-------10-----|
F|--------------------12----------------------12-----------|
C|-0----0------------------0----0-----------------0----0---|
G|---------------------------------------------------------|
C|---------------------------------------------------------|


D|---------------------------------------------------------|
A|---------------------------------------------------------|
F|---------------------------------------------------------|
C|--10--9h10p9--7--9--7--5s7--7----------------------------|
G|---------------------------------------------------------|
C|---------------------------------------------------------|
Comments