Godsmack - Sick Of Life Chords & Tabs

 

Sick Of Life Chords & Tabs

Godsmack Chords & Tabs

Version: 1 Type: Tab 0 ratings
1 star 2 stars 3 stars 4 stars 5 stars
comments

Sick Of Life Tab

   
Sick Of Life by Godsmack
tabbed by Jason

Tune to Drop C (low to high CGCFAD)

Why hasn't anyone tabbed anything from the new Godsmack CD except 
Awake?
I decided to give Sick Of Life a shot since it's a cool song and it
isn't that hard. This is my first tab of a song that hasn't been done
by anyone else so don't get pissed if it sucks.
I figured out most of the parts, it may not be completely accurate 
but it sounds right to me
I didn't attempt to include any rhythm...listen to the CD

Intro                            Chorus
D|-------------------------------|-------------------------------|
A|-------------------------------|-------------------------------|
F|-------------------------------|-------------------------------|
C|-------------------------------|-1p0-0-0-3p0-0-0-6-0-0-3p0-0-0-|
G|-------------------------------|-1p0-0-0-3p0-0-0-6-0-0-3p0-0-0-|
C|-1p0-0-0-3p0-0-0-6-0-0-3p0-0-0-|-1p0-0-0-3p0-0-0-6-0-0-3p0-0-0-|
pm.................................

D|-xxxxxxx--|
A|-xxxxxxx--|
F|-xxxxxxx--|
C|----------|
G|----------|
C|----------| after playing main riff a few times
[ Tab from: http://www.guitartabs.cc/tabs/g/godsmack/sick_of_life_tab.html ]
Verse
D|------------------------------------------------------------------|
A|------------------------------------------------------------------|
F|------------------------------------------------------------------|
C|------------------------------------------------------------------|
G|------------------------------------------------------------------|
C|-1p0-0-0-3p0-0-0--1p0-0-0-3p0-0-0-0-6-0-0-3p0-0-0-1p0-0-0-3p0-0-0-|
pm..................................................................

D|----------|
A|----------|
F|-888888---|
C|--------0-|
G|-666666-0-|
C|--------0-|
 ("I wanna know...")

Pre Chorus
D|--------------------------------|
A|--------------------------------|
F|--------------------------------|
C|-/5-55-5/6-6-6/7-77-7/8-888888\-|
G|-/5-55-5/6-6-6/7-77-7/8-888888\-|
C|-/5-55-5/6-6-6/7-77-7/8-888888\-|
("Yea...I'm gonna do it again...")

Bridge
D|---------------------|
A|---------------------|
F|-88888-88888-8888888-|
C|-77777---------------|
G|-66666-66666-6666666-|
C|---------------------|

And for the solo, just a lot of stuff with a wah pedal, figure it out 
yourself, or make one up, whatever, I can't figure it out.

Send questions, comments, and hate mail to powerkordz@aol.com
Comments