Godsmack - Sick Of Life Chords & Tabs

 

Sick Of Life Chords & Tabs

Godsmack Chords & Tabs

Version: 1 Type: Bass Tab 0 ratings
1 star 2 stars 3 stars 4 stars 5 stars
comments

Sick Of Life Bass Tab

   
Updated: 11-12-00

Song: Sick Of Life
Artist: Godsmack
Album: Awake
Released: 10-31-00
Transcribed by: "Joe Black" From The Bronx!


Tuning for 4 string: C-G-C-F

 r    Strike Then Bend String Down And Release
 ~    Let Ring
 /    Slide Up
 \    Slide Down
 ( )  Note to land on without striking

  Part (a)                   
F:-----------------------------------------------|
C:-----------------------------------------------|
G:-----------------------------------------------|
C:--3r--0--0--0--5r--0--0--8r--0----0--3r--0--0--|


  Part (b)               Play 6 times
F:--------------------------------------------------|
C:--------------------------------------------------|
G:--------------------------------------------------|
C:--0--3r--0--0--0--5r--0--0--8r--0----0--3r--0--0--|

  Part (C)
F:-----------------------------------------|
C:-----------------------------------------|
G:-----------------------------------------|
C:--0--3r--0--0--0--5r--0--0--8r--0--0--0--|


Play Part (a)
Play Part (b) 2 times


  Part (d)
F:----------------------------------------|
C:----------------------------------------|
G:----------------------------------------|
C:--0--3r--0--0--0--5r--0--0--8r--0--0----|


Play Part (a)
Play Part (b) 2 times


  Part (e)
F:--------------------------------------------|
C:--------------------------------------------|
G:--------------------------------------------|
C:--0--3r--0--0--0--5r--0--0--8r--0--0--0--0--|

  Part (F)
F:-----------------------------|
C:-----------------------------|
G:-----------------------------|
C:--3r--0--0--0--5r--0--0--0---|

  Part (G)
F:------------------------------------------------------|
C:------------------------------------------------------|
G:------------------------------------------------------|
C:--3r--0--0--0--5r--0--0--8r--0--0----0--3r--0--3r--0--|    

[ Tab from: http://www.guitartabs.cc/tabs/g/godsmack/sick_of_life_btab.html ]
Play Part (f)
Play part (g)
                          
  Part (h)
F:-------------------------|
C:-------------------------|
G:--6--6-------------------|
C:--------3r--0--0--0~-----|

  Part (i)
F:---------------------------------------------|
C:---------------------------------------------|
G:--6--6---------------------------------------|
C:--------3r--0--0--8r--0--0--0--3r--0--3r--0--| 


Play Part (h)
Play Part (i)


  Part (j)           Play 3 times
F:--------------------------------|
C:--------------------------------|
G:--------------------------------|
C:--0--5--5\6--8--6--6/(5)--0--0--|

  Part (k)
F:-------------------|
C:-------------------|
G:-------------------|
C:--0--5--5\6--8--6--|


Play Part (a)
Play Part (b) 2 times
Play Part (e)
Play Part (f)
Play part (g)
Play Part (f)
Play part (g)
Play Part (h)
Play Part (i)
Play Part (h)
Play Part (i)
Play Part (j) 3 times
Play Part (k)
Play Part (a)
Play Part (b) 2 times
Play part (d)
Play Part (a)
Play Part (b) 3 times


Play 4 times 
F:--------------------------------------|
C:--------------------------------------|
G:--6-----------------------------------|
C:--------------------------------------|

I'm not 100% possitive if it's, 6 on the 
G string in regards to the tabs above and 
below. Oh well? Maybe an open C?


Play 3 times [very low in background]
F:--------------------------------------|
C:--------------------------------------|
G:--6~----------------------------------|
C:------[0--3--0--5--0--0--3--0--3--0]--|

F:--------------------------------------|
C:--------------------------------------|
G:--6-6-6-6-6-6-6-6-6-6-6-6-6-6-6-6-----|
C:--------------------------------------|


Play Part (j) 4 times
Play Part (b) 3 times


F:-------------------------------|
C:-------------------------------|
G:-------------------------------|
C:--0--3r--0--0--0--5r--0--0--8--|

Play Part (a)
Play Part (b) 2 times
Play Part (d)
Play Part (a)
Play Part (b) 2 times


F:-----------------------------------------|
C:-----------------------------------------|
G:-----------------------------------------|
C:--0--3r--0--0--0--5r--0--0--8r--0--0--0--|


Play Part (f)
Play part (g)
Play Part (f)

The End!

Comments