Godsmack - Running Blind Chords & Tabs

 

Running Blind Chords & Tabs

Godsmack Chords & Tabs

Version: 9 Type: Tab 0 ratings
1 star 2 stars 3 stars 4 stars 5 stars
comments

Running Blind Tab

   
BAnd- Godsmack
Song- Running Blind
Album- The Other Side

Gtr I (E A D G B E) - 'Sully Erna'
Gtr II (E A D G B E) - 'Tony Rambola'

 Intro
  Q=70
  Em      D/E   EmC/E     Em     D/E   EmC/E Em11
 4/4
  Gtr I
   Q  E S E S S S E S S   Q  E S E S S S E S S
|-^0--0-0-2-2-2-0-0-0-0-|-0--0-0-2-2-2-0-0-0-0-|
|-^0--0-0-3-3-3-0-1-1-0-|-0--0-0-3-3-3-0-1-1-0-|
|-^0--0-0-2-2-2-0-0-0-0-|-0--0-0-2-2-2-0-0-0-0-|
|-^2--2-2-0-0-0-0-2-2-0-|-2--2-2-0-0-0-0-2-2-0-|
|-^2--2-2-0-0-0-0-3-3-0-|-2--2-2-0-0-0-0-3-3-0-|
|-^0--0-0-0-0-0-0-0-0-0-|-0--0-0-0-0-0-0-0-0-0-|
|
| Gtr II
|  W                      W
|-----------------------|----------------------|
|-----------------------|----------------------|
|-----------------------|----------------------|
|-----------------------|----------------------|
|-----------------------|----------------------|
|-----------------------|----------------------|


  Em           D/E   EmC/E Em11Em           D/E   EmC/E
  Q       E  S E S S S E S S   Q       E  S E S S S  Q
|-0-------0--0-2-2-2-0-0-0-0-|-0-------0--0-2-2-2-0-^0--|
|-0-------0--0-3-3-3-0-1-1-0-|-0-------0--0-3-3-3-0-^1--|
|-0-------0--0-2-2-2-0-0-0-0-|-0-------0--0-2-2-2-0-^0--|
|-2-------2--2-0-0-0-0-2-2-0-|-2-------2--2-0-0-0-0-^2--|
|-2-------2--2-0-0-0-0-3-3-0-|-2-------2--2-0-0-0-0-^3--|
|-0-------0--0-0-0-0-0-0-0-0-|-0-------0--0-0-0-0-0-^0--|
|
| S S S S H.                   S S S S H.
|-------0--------------------|-------0------------------|
|---0h3---3------------------|---0h3---3----------------|
|----------------------------|--------------------------|
|-2--------------------------|-2------------------------|
|----------------------------|--------------------------|
|----------------------------|--------------------------|


  $
  Em            D/E   EmC/E   Em11Em           D/E   EmC/E Em11
   Q       E  S E S S S E   S S   Q       E  S E S S S E S S
|-^0-------0--0-2-2-2-0-0---0-0-|-0-------0--0-2-2-2-0-0-0-0--|
|-^0-------0--0-3-3-3-0-1---1-0-|-0-------0--0-3-3-3-0-1-1-0--|
|-^0-------0--0-2-2-2-0-0---0-0-|-0-------0--0-2-2-2-0-0-0-0--|
|-^2-------2--2-0-0-0-0-2---2-0-|-2-------2--2-0-0-0-0-2-2-0--|
|-^2-------2--2-0-0-0-0-3---3-0-|-2-------2--2-0-0-0-0-3-3-0--|
|-^0-------0--0-0-0-0-0-0---0-0-|-0-------0--0-0-0-0-0-0-0-0--|
|
|  S S S S E.   E S S E   S S S   S S S S E.   E S E   Q
|--------0----------------------|-------0---------------------|
|----0h3---3--------------------|---0h3---3-------------------|
|---------------2-4-2-0---4-2-0-|--------------2-4-2---0------|
|--2----------------------------|-2---------------------------|
|-------------------------------|-----------------------------|
|-------------------------------|-----------------------------|


  Em           D/E   EmC/E   Em11Em           D/E   EmC/E
  Q       E  S E S S S E   S S   Q       E  S E S S S Q
|-0-------0--0-2-2-2-0-0---0-0-|-0-------0--0-2-2-2-0-0--|
|-0-------0--0-3-3-3-0-1---1-0-|-0-------0--0-3-3-3-0-1--|
|-0-------0--0-2-2-2-0-0---0-0-|-0-------0--0-2-2-2-0-0--|
|-2-------2--2-0-0-0-0-2---2-0-|-2-------2--2-0-0-0-0-2--|
|-2-------2--2-0-0-0-0-3---3-0-|-2-------2--2-0-0-0-0-3--|
|-0-------0--0-0-0-0-0-0---0-0-|-0-------0--0-0-0-0-0-0--|
|
| S S S S E.   E S S E   S S S   S S S S E.   E S E   Q
|-------0----------------------|-------0-----------------|
|---0h3---3--------------------|---0h3---3---------------|
|--------------2-4-2-0---4-2-0-|--------------2-4-2---0--|
|-2----------------------------|-2-----------------------|
|------------------------------|-------------------------|
|------------------------------|-------------------------|


   Verse
    Em     D/E   EmC/E Em11Em     D/E   Em11  Em11
    Gtrs I, II
    Q  E S E S S S E S S   Q  E S E S S S E S S
||--0--0-0-2-2-2-0-0-0-0-|-0--0-0-2-2-2-0-0-0-0-|
||o-0--0-0-3-3-3-0-1-1-0-|-0--0-0-3-3-3-0-1-1-0-|
||--0--0-0-2-2-2-0-0-0-0-|-0--0-0-2-2-2-0-0-0-0-|
||--2--2-2-0-0-0-0-2-2-0-|-2--2-2-0-0-0-0-2-2-0-|
||o-2--2-2-0-0-0-0-3-3-0-|-2--2-2-0-0-0-0-3-3-0-|
||--0--0-0-0-0-0-0-0-0-0-|-0--0-0-0-0-0-0-0-0-0-|


  Em     D/E   EmC/E Em11Em     D/E   EmC/E Em11
  Q  E S E S S S E S S   Q  E S E S S S E S S
|-0--0-0-2-2-2-0-0-0-0-|-0--0-0-2-2-2-0-0-0-0--||
|-0--0-0-3-3-3-0-1-1-0-|-0--0-0-3-3-3-0-1-1-0-o||
|-0--0-0-2-2-2-0-0-0-0-|-0--0-0-2-2-2-0-0-0-0--||
|-2--2-2-0-0-0-0-2-2-0-|-2--2-2-0-0-0-0-2-2-0--||
|-2--2-2-0-0-0-0-3-3-0-|-2--2-2-0-0-0-0-3-3-0-o||
|-0--0-0-0-0-0-0-0-0-0-|-0--0-0-0-0-0-0-0-0-0--||


   Chorus
    A           B           A           B
    E S S E S E S E E S S   E S S E S E S E E S S
||------------------------|-----------------------|
||o-----------------------|-----------------------|
||--6-6-6-6-6-6-8-8-8-8-8-|-6-6-6-6-6-6-8-8-8-8-8-|
||--7-7-7-7-7-7-9-9-9-9-9-|-7-7-7-7-7-7-9-9-9-9-9-|
||o-7-7-7-7-7-7-9-9-9-9-9-|-7-7-7-7-7-7-9-9-9-9-9-|
||--5-5-5-5-5-5-7-7-7-7-7-|-5-5-5-5-5-5-7-7-7-7-7-|


                                      D.S.
  A           B           G           F
  E S S E S E S E E S S   E S S E S E S E Q
|-----------------------|---------------------||
|-----------------------|--------------------o||
|-6-6-6-6-6-6-8-8-8-8-8-|-4-4-4-4-4-4-2-2-2---||
|-7-7-7-7-7-7-9-9-9-9-9-|-5-5-5-5-5-5-3-3-3---||
|-7-7-7-7-7-7-9-9-9-9-9-|-5-5-5-5-5-5-3-3-3--o||
|-5-5-5-5-5-5-7-7-7-7-7-|-3-3-3-3-3-3-1-1-1---||


 Guitar Solo
  Em        D/E     EmC/E   Em11Em         D/E     EmC/E   Em11
  Gtr I
   Q    E S E   S S S E   S S    Q     E S E   S S S E   S S
|-^0----0-0-2---2-2-0-0---0-0-|--0-----0-0-2---2-2-0-0---0-0-|
|-^0----0-0-3---3-3-0-1---1-0-|--0-----0-0-3---3-3-0-1---1-0-|
|-^0----0-0-2---2-2-0-0---0-0-|--0-----0-0-2---2-2-0-0---0-0-|
|-^2----2-2-0---0-0-0-2---2-0-|--2-----2-2-0---0-0-0-2---2-0-|
|-^2----2-2-0---0-0-0-3---3-0-|--2-----2-2-0---0-0-0-3---3-0-|
|-^0----0-0-0---0-0-0-0---0-0-|--0-----0-0-0---0-0-0-0---0-0-|
|
| Gtr II
|  E  E E S S S S S E   S S S   +E   E E S S S S S E   S S S
|-----------------------------|------------------------------|
|---------7-7-8-8-7-----------|----------7-7-8-8-7-----------|
|----/9-9-----------9---9-7-9-|-(9)-/9-9-----------9---9-7-9-|
|-----------------------------|------------------------------|
|-----------------------------|------------------------------|
|-----------------------------|------------------------------|


  Em               D/E       EmC/E   Em11Em            D/E   EmC/E Em11
   Q         E   S  E    S S S E   S S   Q       E   S E S S S E S S
|--0---------0---0--2----2-2-0-0---0-0-|-0-------0---0-2-2-2-0-0-0-0-|
|--0---------0---0--3----3-3-0-1---1-0-|-0-------0---0-3-3-3-0-1-1-0-|
|--0---------0---0--2----2-2-0-0---0-0-|-0-------0---0-2-2-2-0-0-0-0-|
|--2---------2---2--0----0-0-0-2---2-0-|-2-------2---2-0-0-0-0-2-2-0-|
|--2---------2---2--0----0-0-0-3---3-0-|-2-------2---2-0-0-0-0-3-3-0-|
|--0---------0---0--0----0-0-0-0---0-0-|-0-------0---0-0-0-0-0-0-0-0-|
|
| +S    S  E S E    S  E   S S S S E     S S S S S S S E S S S E E
|--------------------------------------|-----------------------------|
|-----/12-12-8-8---10-10---7-7-8-8-7---|---5-5-7-7-7-5-3-3h5-5-3-3S==|
|-(9)----------------------------------|-----------------------------|
|--------------------------------------|-----------------------------|
|--------------------------------------|-----------------------------|
|--------------------------------------|-----------------------------|

[ Tab from: http://www.guitartabs.cc/tabs/g/godsmack/running_blind_tab_ver_9.html ]
  A                   B                A                        B
   E  S S  E  S  E    S E   E    S S    E       S S  E  S  E    S E    E   S S
|------------------------------------|-----------------------------------------|
|------------------------------------|-----------------------------------------|
|--6--6-6--6--6--6----8-8---8----8-8-|--6-------6-6--6--6--6----8-8----8---8-8-|
|--7--7-7--7--7--7----9-9---9----9-9-|--7-------7-7--7--7--7----9-9----9---9-9-|
|--7--7-7--7--7--7----9-9---9----9-9-|--7-------7-7--7--7--7----9-9----9---9-9-|
|--5--5-5--5--5--5----7-7---7----7-7-|--5-------5-5--5--5--5----7-7----7---7-7-|
|
|  E  E    E  S  S  S E   E   E.       +S    S  E    E  S  S  S E    E   S E
|------------------------------------|--------------------------7--------------|
|-10-10---10-10-10-10-9---7----------|-----/10-10---10-10-10-10-----10---9-7---|
|-----------------------------9------|-(9)-------------------------------------|
|------------------------------------|-----------------------------------------|
|------------------------------------|-----------------------------------------|
|------------------------------------|-----------------------------------------|


  A                       B                G             F
   E      S S  E  S  E    S E   E    S S   E S S E S E    S  E  Q
|----------------------------------------|---------------------------------|
|----------------------------------------|---------------------------------|
|--6------6-6--6--6--6----8-8---8----8-8-|-4-4-4-4-4-4----2--2--2----------|
|--7------7-7--7--7--7----9-9---9----9-9-|-5-5-5-5-5-5----3--3--3----------|
|--7------7-7--7--7--7----9-9---9----9-9-|-5-5-5-5-5-5----3--3--3----------|
|--5------5-5--5--5--5----7-7---7----7-7-|-3-3-3-3-3-3----1--1--1----------|
|
| +S   S  E    E  S  S  S E   E   E.       E S S E S S S  S  E.    S  S  S
|----------------------------------------|---------------------------------|
|-(7)-10-10---10-10-10-10-9---7----------|-8-8-8-8-8-8-8h10-10----10-10h12-|
|---------------------------------9------|---------------------------------|
|----------------------------------------|---------------------------------|
|----------------------------------------|---------------------------------|
|----------------------------------------|---------------------------------|


 Re-Intro
  Em            D/E   EmC/E   Em11Em           D/E   EmC/E Em11
   Q       E  S E S S S E   S S   Q       E  S E S S S E S S
|--0-------0--0-2-2-2-0-0---0-0-|-0-------0--0-2-2-2-0-0-0-0--|
|--0-------0--0-3-3-3-0-1---1-0-|-0-------0--0-3-3-3-0-1-1-0--|
|--0-------0--0-2-2-2-0-0---0-0-|-0-------0--0-2-2-2-0-0-0-0--|
|--2-------2--2-0-0-0-0-2---2-0-|-2-------2--2-0-0-0-0-2-2-0--|
|--2-------2--2-0-0-0-0-3---3-0-|-2-------2--2-0-0-0-0-3-3-0--|
|--0-------0--0-0-0-0-0-0---0-0-|-0-------0--0-0-0-0-0-0-0-0--|
|
|  ~~
|  S S S S E.   E S S E   S S S   S S S S E.   E S E   Q
|--------0----------------------|-------0---------------------|
|-12-0h3---3--------------------|---0h3---3-------------------|
|---------------2-4-2-0---4-2-0-|--------------2-4-2---0------|
|--2----------------------------|-2---------------------------|
|-------------------------------|-----------------------------|
|-------------------------------|-----------------------------|
   W


  Em           D/E   EmC/E   Em11Em           D/E   EmC/E
  Q       E  S E S S S E   S S   Q       E  S E S S S Q
|-0-------0--0-2-2-2-0-0---0-0-|-0-------0--0-2-2-2-0-0--|
|-0-------0--0-3-3-3-0-1---1-0-|-0-------0--0-3-3-3-0-1--|
|-0-------0--0-2-2-2-0-0---0-0-|-0-------0--0-2-2-2-0-0--|
|-2-------2--2-0-0-0-0-2---2-0-|-2-------2--2-0-0-0-0-2--|
|-2-------2--2-0-0-0-0-3---3-0-|-2-------2--2-0-0-0-0-3--|
|-0-------0--0-0-0-0-0-0---0-0-|-0-------0--0-0-0-0-0-0--|
|
| S S S S E.   E S S E   S S S   S S S S E.   E S E   Q
|-------0----------------------|-------0-----------------|
|---0h3---3--------------------|---0h3---3---------------|
|--------------2-4-2-0---4-2-0-|--------------2-4-2---0--|
|-2----------------------------|-2-----------------------|
|------------------------------|-------------------------|
|------------------------------|-------------------------|


 Verse
  Em      D/E   EmC/E Em11Em     D/E   EmC/E Em11
  Gtrs I, II
   Q  E S E S S S E S S   Q  E S E S S S E S S
|-^0--0-0-2-2-2-0-0-0-0-|-0--0-0-2-2-2-0-0-0-0-|
|-^0--0-0-3-3-3-0-1-1-0-|-0--0-0-3-3-3-0-1-1-0-|
|-^0--0-0-2-2-2-0-0-0-0-|-0--0-0-2-2-2-0-0-0-0-|
|-^2--2-2-0-0-0-0-2-2-0-|-2--2-2-0-0-0-0-2-2-0-|
|-^2--2-2-0-0-0-0-3-3-0-|-2--2-2-0-0-0-0-3-3-0-|
|-^0--0-0-0-0-0-0-0-0-0-|-0--0-0-0-0-0-0-0-0-0-|


  Em     D/E   EmC/E Em11Em     D/E   EmC/E Em11
  Q  E S E S S S E S S   Q  E S E S S S E S S
|-0--0-0-2-2-2-0-0-0-0-|-0--0-0-2-2-2-0-0-0-0-||
|-0--0-0-3-3-3-0-1-1-0-|-0--0-0-3-3-3-0-1-1-0-||
|-0--0-0-2-2-2-0-0-0-0-|-0--0-0-2-2-2-0-0-0-0-||
|-2--2-2-0-0-0-0-2-2-0-|-2--2-2-0-0-0-0-2-2-0-||
|-2--2-2-0-0-0-0-3-3-0-|-2--2-2-0-0-0-0-3-3-0-||
|-0--0-0-0-0-0-0-0-0-0-|-0--0-0-0-0-0-0-0-0-0-||


   Outro Chorus
    A           B           A           B
    E S S E S E S E E S S   E S S E S E S E E S S
||------------------------|-----------------------|
||o-----------------------|-----------------------|
||--6-6-6-6-6-6-8-8-8-8-8-|-6-6-6-6-6-6-8-8-8-8-8-|
||--7-7-7-7-7-7-9-9-9-9-9-|-7-7-7-7-7-7-9-9-9-9-9-|
||o-7-7-7-7-7-7-9-9-9-9-9-|-7-7-7-7-7-7-9-9-9-9-9-|
||--5-5-5-5-5-5-7-7-7-7-7-|-5-5-5-5-5-5-7-7-7-7-7-|


  A           B           G           F          Em
  E S S E S E S E E S S   E S S E S E S E Q       W
|-----------------------|---------------------||-^0----*|
|-----------------------|--------------------o||-^0----*|
|-6-6-6-6-6-6-8-8-8-8-8-|-4-4-4-4-4-4-2-2-2---||-^0----*|
|-7-7-7-7-7-7-9-9-9-9-9-|-5-5-5-5-5-5-3-3-3---||-^2----*|
|-7-7-7-7-7-7-9-9-9-9-9-|-5-5-5-5-5-5-3-3-3--o||-^2----*|
|-5-5-5-5-5-5-7-7-7-7-7-|-3-3-3-3-3-3-1-1-1---||-^0----*|


Duration Legend
---------------
W - whole; H - half; Q - quarter; E - 8th; S - 16th; T - 32nd; X - 64th; a - acciaccatura
+ - note tied to previous; . - note dotted; .. - note double dotted
Uncapitalized letters represent notes that are staccato (1/2 duration)
Irregular groupings are notated above the duration line
Duration letters will always appear directly above the note/fret number it represents the
duration for.  Duration letters with no fret number below them represent rests.  Multi-
bar rests are notated in the form Wxn, where n is the number of bars to rest for.  Low
melody durations appear below the staff

Tablature Legend
----------------
 h   - hammer-on
 p   - pull-off
 b   - bend
 pb  - pre-bend
 r   - bend release (if no number after the r, then release immediately)
 /\  - slide into or out of (from/to "nowhere")
 s   - legato slide
 S   - shift slide
  - natural harmonic
[n]  - artificial harmonic
n(n) - tapped harmonic
 ~   - vibrato
 tr  - trill
 T   - tap
 TP  - trem. picking
 PM  - palm muting
\n/  - tremolo bar dip; n = amount to dip
 \n  - tremolo bar down
 n/  - tremolo bar up
/n\  - tremolo bar inverted dip
 =   - hold bend; also acts as connecting device for hammers/pulls
 <>  - volume swell (louder/softer)
 x   - on rhythm slash represents muted slash
 o   - on rhythm slash represents single note slash

Misc Legend
-----------
 |  - bar
||  - double bar
||o - repeat start
o|| - repeat end
*|  - double bar (ending)
 :  - bar (freetime)
 $  - Segno
 &  - Coda
Tempo markers -  = BPM(8/16=s8/s16), where s8 = swing 8ths, s16 = swing 16ths
Comments