Godsmack - Running Blind Chords & Tabs

 

Running Blind Chords & Tabs

Godsmack Chords & Tabs

Version: 7 Type: Tab 0 ratings
1 star 2 stars 3 stars 4 stars 5 stars
comments

Running Blind Tab

   
GODSMACK - RUNNING BLIND [ SOLO ]
tuned down one half step [ Eb Ab Db Gb Hb Eb ]

Very simple solo.
sounds nice too.

/ = slide up
\ = slide down


|---------------------------------------------------------------------|
|---------------7-8-7---------------------------7-8-7-----------------|
|---7/9-9-9-9---------9-------7--9---9---9-9-9---------9----7--9------|
|--------------------------9------------------------------9-----------|
|---------------------------------------------------------------------|
|---------------------------------------------------------------------|
[ Tab from: http://www.guitartabs.cc/tabs/g/godsmack/running_blind_tab_ver_7.html ]
|---7-7---------------------------------------------------------------|
|--------8-8--10-10--7-7--7/8-----5-5--7-7---3-3-3--5-5-5-------------|
|---------------------------------------------------------------------|
|---------------------------------------------------------------------|
|---------------------------------------------------------------------|
|---------------------------------------------------------------------|

|---------------------------------------------------------------------|
|---10-10-10-10--9-7-----10-10-10-10--10/12\10-9--10-10-10-10--9-7----|
|--------------------9----------------------------------------------9-|
|---------------------------------------------------------------------|
|---------------------------------------------------------------------|
|---------------------------------------------------------------------|

|-----------------------------------------------------------------------|
|---8-8-8-8---10-10-10-10-10---/12--------------------------------------|
|-----------------------------------------------------------------------|
|-----------------------------------------------------------------------|
|-----------------------------------------------------------------------|
|-----------------------------------------------------------------------|

Might be a little wrong with the timing or something.
Listen to the song to get it right.
Comments