Godsmack - Running Blind Chords & Tabs

 

Running Blind Chords & Tabs

Godsmack Chords & Tabs

Version: 2 Type: Bass Tab 0 ratings
1 star 2 stars 3 stars 4 stars 5 stars
comments

Running Blind Bass Tab

   
i tabbed this with a 5 string... at standard tuning (B E a D G)

the song is played in Eb so if u have a 4 string tune to standard Eb (Eb Ab Db Gb)
and play all the 4's on the B string as 0pen on the Eb and play the other strings up a fret
(play 4 as 5) :-D
have fun... eassssy song... but beautiful  hehe



(00:14)
G|-------------------------------------------------------------------------|
D|-----------44------------------------------------------------------------|
A|------4-44------------4-44-22--------------------------------------------|
E|-------------------------------------------------------------------------|
B|-4-44------------4-44----------------------------------------------------|

G|-------------------------------------------------------------------------|
D|-----------44------------------------------------------------------------|
A|------4-44------------4-44-2---------------------------------------------|
E|-------------------------------------------------------------------------|
B|-4-44------------4-44----------------------------------------------------|

(00:28)
G|-------------------------------------------------------------------------|
D|-------------------------------------------------------------------------|
A|------4-4--22---------4-4--2-------------------------------------------|x4
E|-------------------------------------------------------------------------|
B|-4-4-------------4-4-----------------------------------------------------|

(00:56)
G|-------------------------------------------------------------------------|
D|-------------------------------------------------------------------------|
A|-------------------------------------------------------------------------|
E|-4-4-44-66-66--4-4-44-66-66--4-4-44-66-66--2-2-22-00-00------------------|
B|-------------------------------------------------------------------------|

(01:10)
G|-------------------------------------------------------------------------|
D|-----------44------------------------------------------------------------|
A|------4-44------------4-44-22--------------------------------------------|
E|-------------------------------------------------------------------------|
B|-4-44------------4-44----------------------------------------------------|

G|-------------------------------------------------------------------------|
D|-----------44------------------------------------------------------------|
A|------4-44------------4-44-2---------------------------------------------|
E|-------------------------------------------------------------------------|
B|-4-44------------4-44----------------------------------------------------|

(01:24)
G|-------------------------------------------------------------------------|
D|-------------------------------------------------------------------------|
A|------4-4--22---------4-4--2-------------------------------------------|x4
E|-------------------------------------------------------------------------|
B|-4-4-------------4-4-----------------------------------------------------|

(01:52)
G|-------------------------------------------------------------------------|
D|-------------------------------------------------------------------------|
A|-------------------------------------------------------------------------|
E|-4-4-44-66-66--4-4-44-66-66--4-4-44-66-66--2-2-22-00-00------------------|
B|-------------------------------------------------------------------------|
[ Tab from: http://www.guitartabs.cc/tabs/g/godsmack/running_blind_btab_ver_2.html ]
(02:06)
G|-------------------------------------------------------------------------|
D|-----------44------------------------------------------------------------|
A|------4-44------------4-44-22--------------------------------------------|
E|-------------------------------------------------------------------------|
B|-4-44------------4-44----------------------------------------------------|

G|-------------------------------------------------------------------------|
D|-----------44------------------------------------------------------------|
A|------4-44------------4-44-2---------------------------------------------|
E|-------------------------------------------------------------------------|
B|-4-44------------4-44----------------------------------------------------|

(02:20)
G|-------------------------------------------------------------------------|
D|-------------------------------------------------------------------------|
A|------4-4--22---------4-4--2-------------------------------------------|x2
E|-------------------------------------------------------------------------|
B|-4-4-------------4-4-----------------------------------------------------|

(02:34)
G|-------------------------------------------------------------------------|
D|-------------------------------------------------------------------------|
A|-------------------------------------------------------------------------|
E|-4-4-44-66-66--4-4-44-66-66--4-4-44-66-66--2-2-22-00-00------------------|
B|-------------------------------------------------------------------------|

(02:48)
G|-------------------------------------------------------------------------|
D|-----------44------------------------------------------------------------|
A|------4-44------------4-44-22--------------------------------------------|
E|-------------------------------------------------------------------------|
B|-4-44------------4-44----------------------------------------------------|

G|-------------------------------------------------------------------------|
D|-----------44------------------------------------------------------------|
A|------4-44------------4-44-2---------------------------------------------|
E|-------------------------------------------------------------------------|
B|-4-44------------4-44----------------------------------------------------|

(03:02)
G|-------------------------------------------------------------------------|
D|-------------------------------------------------------------------------|
A|------4-4--22---------4-4--2-------------------------------------------|x2
E|-------------------------------------------------------------------------|
B|-4-4-------------4-4-----------------------------------------------------|

(03:16)
G|-------------------------------------------------------------------------|
D|-----------44------------------------------------------------------------|
A|------4-44------------4-44-22------------------------------------------|x3
E|-------------------------------------------------------------------------|
B|-4-44------------4-44----------------------------------------------------|

G|-------------------------------------------------------------------------|
D|-----------44------------------------------------------------------------|
A|------4-44------------4-44-2---------------------------------------------|
E|-------------------------------------------------------------------------|
B|-4-44------------4-44--------4~ring~-------------------------------------|
Comments