Godsmack - Running Blind Chords & Tabs

 

Running Blind Chords & Tabs

Godsmack Chords & Tabs

Version: 1 Type: Bass Tab 0 ratings
1 star 2 stars 3 stars 4 stars 5 stars
comments

Running Blind Bass Tab

   
Song:Running Blind
Artist:Godsmack
Tabbed by:MEMO
Tuning:E,A,D,G
e-mail: deride_korn_mudvayne666@hotmail.com

k here it goes
(00:14)
Intro/Verse
G|--------------------------|
D|-1-1----------------------|
A|-----4-4-44-2-------------| x4
E|--------------------------|

Intro/Verse: x4 pause x4 again

(00:57)
Chorus
G|------------------------------------------|
D|6-6-66----------------6-6-66--------------|
A|-------8-8-5-5-5-8-8---------8-8-5-5-3-3-1| x1
E|------------------------------------------|
[ Tab from: http://www.guitartabs.cc/tabs/g/godsmack/running_blind_btab.html ]
(01:10)
Intro/Verse: x4 pause x4 pause x4

(01:53)
Chorus: x1

(02:07)
intro/verse x1

(02:21) solo
Intro/verse x1

G|---------------------------------------------------------|
D|-6-6-666-5-3-1-6-6-666-9999--6-6-666-5-3-1-3-3-333-6666-9|
A|---------------------------------------------------------|
E|---------------------------------------------------------|
(02:49) end solo

(02:49)
Intro/Verse" x4 pause x4 pause x 4 pause x4

(03:45)
ending note 
G|---|
D|-1-|
A|---|
E|---|

well thats the whole song. e-mail me for any corrections
Comments