Godsmack - Releasing The Demons Chords & Tabs

 

Releasing The Demons Chords & Tabs

Godsmack Chords & Tabs

Version: 2 Type: Tab 0 ratings
1 star 2 stars 3 stars 4 stars 5 stars
comments

Releasing The Demons Tab

Band- Godsmack
Song- Releasing The Demons
Album- Faceless
Tuning- Drop C

INTRO:
------------------------------------------------------------------------------|
------------------------------------------------------------------------------|
------------------------------------------------------------------------------|
--0-x-x---10/12-12-12---13-13-13-13--------3-3-3-3----6----6------------------|
--0-x-x---10/12-12-12---13-13-13-13--x3----3-3-3-3----6----6------------------|
--0-x-x---10/12-12-12---13-13-13-13--------3-3-3-3----6----6------------------|
[ Tab from: http://www.guitartabs.cc/tabs/g/godsmack/releasing_the_demons_tab_ver_2.html ]
VERSE:	                                   FILL 1:
---------------------------------------------|--------------------------------|
---------------------------------------------|--------------------------------|
------7--------------------------------------|--------------------------------|
----6----------------5-/-6-------------------|-13-13-13-13-13--12-10----------|
--5----------------6-------------------------|-13-13-13-13-13--12-10----------|
-----------------7---------------------------|-13-13-13-13-13--12-10----------|
      ^LET RING          ^DO NOT PICK

CHORUS:
------------------------------------------------------------------------------|
------------------------------------------------------------------------------|
-------8-8-8-8----7-7-7-7-----------------------------------------------------|
--0----8-8-8-8----7-7-7-7------3-3-3-3-----6-----6----------------------------|
--0----6-6-6-6----5-5-5-5------3-3-3-3-----6-----6----------------------------|
--0----------------------------3-3-3-3-----6-----6----------------------------|
 P.M

BRIDGE:
-------------------------------------------------------------------------------|
-------------------------------------------------------------------------------|
-------------------------------------------------------------------------------|
-------------------------------------------------------------------------------|
--0-0-0-0-----0-0-0-0-----0-0-0-0-0-0-0-0--------------------------------------|
--0-0-0-0-----0-0-0-0-----0-0-0-0-0-0-0-0--------------------------------------|
  --P.M--     --P.M--     ------P.M--------------------------------------------|
Comments