Godsmack - Releasing The Demons Chords & Tabs

 

Releasing The Demons Chords & Tabs

Godsmack Chords & Tabs

Version: 1 Type: Tab 0 ratings
1 star 2 stars 3 stars 4 stars 5 stars
comments

Releasing The Demons Tab

godsmack
releasing the demons
this is only the intro


intro:
[ Tab from: http://www.guitartabs.cc/tabs/g/godsmack/releasing_the_demons_tab.html ]
D|--0-x-0-----------------------
A|--2-x-2-----------------------
F|--3-x-3-----------------------
C|--0-x-0---6-6-6--8-8-8--7-7---
G|--0-x-0---4-4-4--6-6-6--7-7---
C|----x-------------------5-5---

i think the verse is somthing like

D|------7----------
A|----6---------6--
F|--5---------5----    with flanger effect
C|----------4------
G|-----------------
C|-----------------


thats all i could figuare out.  the vers is WAY off.
Comments