Godsmack - Make Me Believe Chords & Tabs

 

Make Me Believe Chords & Tabs

Godsmack Chords & Tabs

Version: 1 Type: Tab 0 ratings
1 star 2 stars 3 stars 4 stars 5 stars
comments

Make Me Believe Tab

D----------------------------------------------------------------------------------
A----------------------------------------------------------------------------------
F-------10-10-x-8-8-x-7-7----------------------------------------------------------
C-------10-10-x-8-8-x-7-7----------------------------------------------------------
G-000x--8--8--x-6-6-x-5-5--5-5-5-5-5-5-0-0-3-0-0-1---------------------------------
C-000x---------------------5-5-5-5-5-5-0-0-3-0-0-1--0-0-0-0-0-0-8-8-8-7-7-7-0--0-0-

D------------------------------------------------------------------------------
A------------------------------------------------------------------------------
F-------------------------7-7-7-7-7----------------7-7-7-7-7-------------------
C-------------------------7-7-7-7-7----------------7-7-7-7-7-------------------
G-------------------------5-5-5-5-5----------------5-5-5-5-5-8-8-8-7-7-7-5-5-5-
C0-0-0-8-8-8-7-7-7-5-5-5-------------8-8-8-8-7-7-7-----------8-8-8-7-7-7-5-5-5-
[ Tab from: http://www.guitartabs.cc/tabs/g/godsmack/make_me_believe_tab.html ]
Comments