Godsmack - Make Me Believe Chords & Tabs

 

Make Me Believe Chords & Tabs

Godsmack Chords & Tabs

Version: 1 Type: Bass Tab 0 ratings
1 star 2 stars 3 stars 4 stars 5 stars
comments

Make Me Believe Bass Tab

Band- Godsmack
Song- Make Me Believe
Tuning- Drop D
[ Tab from: http://www.guitartabs.cc/tabs/g/godsmack/make_me_believe_btab.html ]
intron and i think chorus
G-----------------------------------------------------------------|
D-----------------------------------------------------------------|
A-3-3-3-6-6-6-4-4-4-3-3-3--3-3-3-6-6-66--4-4-4-4------------------| play 4 times
E-----------------------------------------------------------------|
VERSE
G------------------------------------------------|
D-------66666-5555-333--------666-555-333--------|PLAY 4 TIMES
A-3-33-------------------333---------------333---|
E------------------------------------------------|
theslow part be for the solo
G---------------------------------------|
D---------------------------------------|
A-3-------3-----3-------3-------3-------|
E-----4------4-------4------4---------4-|
Comments