Godsmack - Keep Away Chords & Tabs

 

Keep Away Chords & Tabs

Godsmack Chords & Tabs

Version: 6 Type: Tab 0 ratings
1 star 2 stars 3 stars 4 stars 5 stars
comments

Keep Away Tab

   
Band- Godsmack
Song- Keep Away
Album- Godsmack
Tuning- Drop D

Intro:
e|----------------------|
B|----------------------|
G|-7-7-7-7-7-7-7-7-7777-|
D|-x-x-x-x-x-x-x-x-xxxx-|
A|-5-5-5-5-5-5-5-5-5555-|
D|----------------------|

Pre-Verse Riff
E| ----------------------------------------------------------|
B| ----------------------------------------------------------|
G|-----------------------------------------------------------|
D|----0---0---0h3-3-3-3-3--3--3/5-5--5--5-5-5/6-6-6-6-3--0---|
A|-0--0---0---0h3-3-3-3-3--3--3/5-5--5--5-5-5/6-6-6-6-3--0---|
D|----0---0---0h3-3-3-3-3--3--3/5-5--5--5-5-5/6-6-6-6-3--0---|

E|-------------------------------------------------------------|
B|-------------------------------------------------------------|
G|-------------------------------------------------------------|
D|-(0)---0---0---0h3-3-3-3-3--3--3/5-5--5-5-5-5/6-6-6-6-3--0---|
A|-(0)---0---0---0h3-3-3-3-3--3--3/5-5--5-5-5-5/6-6-6-6-3--0---|
D|-(0)---0---0---0h3-3-3-3-3--3--3/5-5--5-5-5-5/6-6-6-6-3--0---|

Verse:
E|-------------------------------------------------------------|
B|-------------------------------------------------------------|
G|-------------------------------------------------------------|
D|-(0)---0---0h3-3-3-3-3--3--x-x-5--5--5-5--5-5/6-6-6-6-3--0---|
A|-(0)---0---0h3-3-3-3-3--3--x-x-5--5--5-5--5-5/6-6-6-6-3--0---|
D|-(0)---0---0h3-3-3-3-3--3--x-x-5--5--5-5--5-5/6-6-6-6-3--0---|

Chorus:

e|-------------------------------------------------------------|
B|-------------------------------------------------------------|
G|-7------7-----5---5--5--5--5--5--5--5--2---2/3-3-3--3-3-3--x-|
D|-7------7-----5---5--5--5--5--5--5--5--2---2/3-3-3--3-3-3--x-|
A|-5------5-----3---3--3--3--3--3--3--3--0---0/1-1-1--1-1-1--x-|
D|-------------------------------------------------------------|

e|--------------------------------------------------------||
B|--------------------------------------------------------||
G|-7------7-----5---5--5--5--5--5--5--5--2--2-------------||
D|-7------7-----5---5--5--5--5--5--5--5--2--2-----12\\----||
A|-5------5-----3---3--3--3--3--3--3--3--0--0-----12\\----||
D|------------------------------------------------12\\----||

e|------------------------------------------------------------------------|
B|------------------------------------------------------------------------|
G|-5-5-2--2---2/3-3-3-3-3-3-3--7--7---5-5-5-5-5-5-5-5-5-2-2--2/3-3-3-3-3--|
D|-5-5-2--2---2/3-3-3-3-3-3-3--7--7---5-5-5-5-5-5-5-5-5-2-2--2/3-3-3-3-3--|
A|-3-3-0--0---0/1-1-1-1-1-1-1--5--5---3-3-3-3-3-3-3-3-3-0-0--0/1-1-1-1-1--|
D|------------------------------------------------------------------------|
[ Tab from: http://www.guitartabs.cc/tabs/g/godsmack/keep_away_tab_ver_6.html ]
e|----------------------------------------------------------------|--0--|
B|----------------------------------------------------------------|--3--|
G|-7------7-----5---5--5--5--5--5--5--5--2--2----2/3-3-3-3-3-5----|--2--|
D|-7------7-----5---5--5--5--5--5--5--5--2--2----2/3-3-3-3-3-5--0-|--0--|
A|-5------5-----3---3--3--3--3--3--3--3--0--0----0/1-1-1-1-1-3--0-|--0--|
D|--------------------------------------------------------------0-|--0--|

Interlude:
e|---------------------------------------------------------|
B|--3--3--3--3----3--3--3--3---3--3--3--3-----3--3--3--3---|
G|--2--2--2--2----1--1--1--1---2--2--2--2-----1--1--1--1--o|
D|--0--0--0--0----0--0--0--0---0--0--0--0-----0--0--0--0--o|
A|---------------------------------------------------------|
D|---------------------------------------------------------|

e|----------------------|-------------------------------------------|
B|----------------------|-------------------------------------------|
G|-7-7-7-7-7-7-7-7-7777-|-10-10101010101010-12-12-12-12-12-12-12-12-|
D|-x-x-x-x-x-x-x-x-xxxx-|--x--x-x-x-x-x-x-x--x--x--x--x--x--x--x--x-|
A|-5-5-5-5-5-5-5-5-5555-|--8--8-8-8-8-8-8-8/10-10-10-10-10-10-10-10-|
D|----------------------|-------------------------------------------|

Key:
 ^ Bend 
p Pull-off
h Hammer-on
*=pinch harmonic

Solo: with Wah
e|----------------------------------------------------------------|
B|----------------------------------------------------------------|
G|-*13^--------x--13^-------13--13^--\---12^-h10-----10--12--10^--|
D|--1/2 bend---x--full---------1/2-------full-----12---------full-|
A|----------------------------------------------------------------|
D|----------------------------------------------------------------|

e|-------------------------------------------------------------------|
B|-------------------------------------------------------------------|
G|--------------------------------------10^--------------------------|
D|-12--10----10------------------------full--12--10----10----10-12^--|
A|--------12----12/h8--8^-\0--0--0------------------12----12---------|
D|--------------------full----------/12------------------------------|

e|------------------------------------10----10h12-10---10-----------(13)-|
B|------------------------------13^------13----------13-----13^hold-(13)-|
G|-----------------------------------------------------------------------|
D|-h10--*12---12---*12---12\--x---------------------------x--------------|
A|--------------------------------------------------------x--------------|
D|-----------------------------------------------------------------------|

e|-----13h17---13^----13^--(13)\-------|
B|-15----------13^----13^--(13)\-------|
G|-------------------------------------|
D|-------------------------------------|
A|-------------------------------------|
D|-------------------------------------|

ENJOY!!!!
Comments