Godsmack - I Stand Alone Chords & Tabs

 

I Stand Alone Chords & Tabs

Godsmack Chords & Tabs

Version: 9 Type: Tab 0 ratings
1 star 2 stars 3 stars 4 stars 5 stars
comments

I Stand Alone Tab

Intro
|-------------------------------------|
|-------------------------------------|
|-------------------------------------|
|-------------------------------------| x7
|---------12-12-----13-13-----13-13---|
|---0-0-0-------0-0-------0-0---------|

|-------------------------------------|
|-------------------------------------|
|-------------------------------------|
|-------------------------------------| x1
|---------12-12-----13-13-----13\\----|
|---0-0-0-------0-0-------0-0-13\\----|


Verse #1
|--------------------------------------------------------------------------------------|
|--------------------------------------------------------------------------------------|
|--------------------------------------------------------------------------------------|
|-0-0-xx-0-0-xx-6-6-6--0-0-xx-0-0-xx-5p3-3-3--0-0-xx-0-0-xx-6-6-6--0-0-xx-0-0-xx--xx---|
|-0-0-xx-0-0-xx-6-6-6--0-0-xx-0-0-xx-5p3-3-3--0-0-xx-0-0-xx-6-6-6--0-0-xx-0-0-xx--xx---|
|-0-0-xx-0-0-xx-6-6-6--0-0-xx-0-0-xx-5p3-3-3--0-0-xx-0-0-xx-6-6-6--0-0-xx-0-0-xx--xx---|

|-------------------------------------------------------------------------|
|-------------------------------------------------------------------------|
|-------------------------------------------------------------------------|
|-0-0-xx-0-0-xx-6-6-6--0-0-xx-0-0-xx-5p3-3-3--0-0-xx-0-0-xx-6-6-6--6~~~---| x1
|-0-0-xx-0-0-xx-6-6-6--0-0-xx-0-0-xx-5p3-3-3--0-0-xx-0-0-xx-6-6-6--6~~~---|
|-0-0-xx-0-0-xx-6-6-6--0-0-xx-0-0-xx-5p3-3-3--0-0-xx-0-0-xx-6-6-6--6~~~---|
[ Tab from: http://www.guitartabs.cc/tabs/g/godsmack/i_stand_alone_tab_ver_9.html ]
Chorus
|-------------------------------------|
|-------------------------------------|
|-------------------------------------|
|-------------------------------------| x3
|---------12-12-----13-13-----13-13---|
|---0-0-0-------0-0-------0-0---------|

|-------------------------------------|
|-------------------------------------|
|-------------------------------------|
|-------------------------------------| x1
|---------12-12-----13-13-----13\\----|
|---0-0-0-------0-0-------0-0-13\\----|


Verse #2
|--------------------------------------------------------------------------------------|
|--------------------------------------------------------------------------------------|
|--------------------------------------------------------------------------------------|
|-0-0-xx-0-0-xx-6-6-6--0-0-xx-0-0-xx-5p3-3-3--0-0-xx-0-0-xx-6-6-6--0-0-xx-0-0-xx--xx---|
|-0-0-xx-0-0-xx-6-6-6--0-0-xx-0-0-xx-5p3-3-3--0-0-xx-0-0-xx-6-6-6--0-0-xx-0-0-xx--xx---|
|-0-0-xx-0-0-xx-6-6-6--0-0-xx-0-0-xx-5p3-3-3--0-0-xx-0-0-xx-6-6-6--0-0-xx-0-0-xx--xx---|

|---------------------------------------------------------------------------------------|
|---------------------------------------------------------------------------------------|
|---------------------------------------------------------------------------------------|
|-0-0-xx-0-0-xx-6-6-6--0-0-xx-0-0-xx-5p3-3-3--0-0-xx-0-0-xx-6-6-6--0-0-xx-0-0-xx-5p3-3-3| x1
|-0-0-xx-0-0-xx-6-6-6--0-0-xx-0-0-xx-5p3-3-3--0-0-xx-0-0-xx-6-6-6--0-0-xx-0-0-xx-5p3-3-3|
|-0-0-xx-0-0-xx-6-6-6--0-0-xx-0-0-xx-5p3-3-3--0-0-xx-0-0-xx-6-6-6--0-0-xx-0-0-xx-5p3-3-3|


A|--8------10--------
E|--5-------8--------


Bridge:
e-------------------------|-----------------------------
B-------------------------|-----------------------------
G-------------------------|-----------------------------
D------2-----------7--7---|-----------------------------
A----2----2------5----5---|---2-2------2-2------2-------
E--0------0---3-------3---|---0-0--0-0-0-0--0-0-0--0-0--
Comments