Godsmack - I Stand Alone Chords & Tabs

 

I Stand Alone Chords & Tabs

Godsmack Chords & Tabs

Version: 5 Type: Tab 4 ratings
1 star 2 stars 3 stars 4 stars 5 stars
comments

I Stand Alone Tab

ARTIST: Godsmack
SONG: I Stand Alone
TABBED BY: Luke

EFFECTS: The biggest effect being used here in place of Tony Rombola's usual wah-wah 
effect is a type of voice effect.  You can replicate this effect two ways: 
	1-go out and buy an actual voice box which is a type of thing that hooks up to 
          your guitar and goes into your mouth.  So, when you play your guitar and open 
          your mouth, a "talking" guitar effect is created.  This, however, is highly 
          expensive.  In case you have no clue what I'm talking about, this effect was 
          also used in the song by Bon Jovi called "It's my Life" where the guitar 
          goes "bow-wow."
	2-go out and buy a voice simulation stomp box.  You can find them at almost any 
          guitar music store and run from 30-50 dollars.

The only other effect is tremelo.  This is made by another simple stomp box which can also be bought anywhere for the same price as the voice simulator.

_______________________________________
KEY:                                   |
....pick scrape......  =  pick scrape  |
       /               =  slide up     |
       \               =  slide down   |
_______________________________________|


INTRO: 
Distorted guitar with voice effect:
|--------------------------------------|     
|--------------------------------------|     repeat
|--------------------------------------|    4 times
|--------------------------------------|
|---------12-12-----13-13------13-13---|
|--0-0-0--------0-0--------0-0---------|

Distorted guitar without voice effect:
|--------------------------------------|                     
|--------------------------------------|     repeat
|--------------------------------------|    3 times
|--------------------------------------|     then . . .       
|---------12-12-----13-13------13-13---|
|--0-0-0--------0-0--------0-0---------|

|--------------------------------------|                     
|--------------------------------------|    
|--------------------------------------|   
|--------------------------------------|       
|---------12-12-----13-13------13\-----|
|--0-0-0--------0-0--------0-0---------|


VERSE 1:
Distorted guitar:
|---------------------------------------------------|
|---------------------------------------------------|
|---------------------------------------------------|
|--0-0-x-x-0-0-x-x-6--6-6-0-0-x-x-0-0-x-x-----------|
|--0-0-x-x-0-0-x-x-6--6-6-0-0-x-x-0-0-x-x-----------|
|--0-0-x-x-0-0-x-x-6--6-6-0-0-x-x-0-0-x-x-5-3-0-3---|

|--------------------------------------------------|
|--------------------------------------------------|
|--------------------------------------------------|
|--0-0-x-x-0-0-x-x-6--6-6-0-0-x-x-0-0-x-x-x-x--x---|
|--0-0-x-x-0-0-x-x-6--6-6-0-0-x-x-0-0-x-x-x-x--x---|
|--0-0-x-x-0-0-x-x-6--6-6-0-0-x-x-0-0-x-x-x-x--x---|

|---------------------------------------------------|
|---------------------------------------------------|
|---------------------------------------------------|
|--0-0-x-x-0-0-x-x-6--6-6-0-0-x-x-0-0-x-x-----------|
|--0-0-x-x-0-0-x-x-6--6-6-0-0-x-x-0-0-x-x-----------|
|--0-0-x-x-0-0-x-x-6--6-6-0-0-x-x-0-0-x-x-5-3-0-3---|

|-------------------------  and end -------------|
|-------------------------  the riff ------------|
|-------------------------  with      -----------|
|--0-0-x-x-0-0-x-x-6--6-6-  this . . . ------6---|
|--0-0-x-x-0-0-x-x-6--6-6- (also with -------6---|
|--0-0-x-x-0-0-x-x-6--6-6-  voice effect) ---6---|


CHORUS:
Distorted guitar:
|--------------------------------------|                     
|--------------------------------------|    
|--------------------------------------|    
|--------------------------------------|          
|---------12-12-----13-13------13-13---|
|--0-0-0--------0-0--------0-0---------|

|--------------------------------------|                     
|--------------------------------------|    
|--------------------------------------|    
|--------------------------------------|          
|---------12-12-----13-13------13\-----|
|--0-0-0--------0-0--------0-0---------|


VERSE 2:
Distorted guitar:
|---------------------------------------------------|
|---------------------------------------------------|
|---------------------------------------------------|
|--0-0-x-x-0-0-x-x-6--6-6-0-0-x-x-0-0-x-x-----------|
|--0-0-x-x-0-0-x-x-6--6-6-0-0-x-x-0-0-x-x-----------|
|--0-0-x-x-0-0-x-x-6--6-6-0-0-x-x-0-0-x-x-5-3-0-3---|

|--------------------------------------------------|
|--------------------------------------------------|
|--------------------------------------------------|
|--0-0-x-x-0-0-x-x-6--6-6-0-0-x-x-0-0-x-x-x-x--x---|
|--0-0-x-x-0-0-x-x-6--6-6-0-0-x-x-0-0-x-x-x-x--x---|
|--0-0-x-x-0-0-x-x-6--6-6-0-0-x-x-0-0-x-x-x-x--x---|

|---------------------------------------------------|
|---------------------------------------------------|
|---------------------------------------------------|
|--0-0-x-x-0-0-x-x-6--6-6-0-0-x-x-0-0-x-x-----------|
|--0-0-x-x-0-0-x-x-6--6-6-0-0-x-x-0-0-x-x-----------|
|--0-0-x-x-0-0-x-x-6--6-6-0-0-x-x-0-0-x-x-5-3-0-3---|

|---------------------------------------------------|
|---------------------------------------------------|
|---------------------------------------------------|
|--0-0-x-x-0-0-x-x-6--6-6-0-0-x-x-0-0-x-x-----------|
|--0-0-x-x-0-0-x-x-6--6-6-0-0-x-x-0-0-x-x-----------|
|--0-0-x-x-0-0-x-x-6--6-6-0-0-x-x-0-0-x-x-5-3-0-3---|

|------------------------------------|
|------------------------------------|
|------------------------------------|
|--5--5-5-5--5-5-5--5-5-8--8-10--1---|
|--5--5-5-5--5-5-5--5-5-8--8--8--1---|
|--5--5-5-5--5-5-5--5-5-8--8--8--1---|


CHORUS:
Distorted guitar:
|--------------------------------------|                     
|--------------------------------------|    
|--------------------------------------|    
|--------------------------------------|          
|---------12-12-----13-13------13-13---|
|--0-0-0--------0-0--------0-0---------|

|--------------------------------------|                     
|--------------------------------------|    
|--------------------------------------|    
|--------------------------------------|          
|---------12-12-----13-13------13\-----|
|--0-0-0--------0-0--------0-0---------|
[ Tab from: http://www.guitartabs.cc/tabs/g/godsmack/i_stand_alone_tab_ver_5.html ]
|------------------------------------------|
|------------------------------------------|
|------------------------------------------|
|--5--5-5-5--5-5-5--5-5-8--8-8-8--8-8-8----|
|--5--5-5-5--5-5-5--5-5-8--8-8-8--8-8-8----|
|--5--5-5-5--5-5-5--5-5-8--8-8-8--8-8-8----|

|--------------------------------------|                     
|--------------------------------------|    
|--------------------------------------|    
|--------------------------------------|          
|---------12-12-----13-13------13-13---|
|--0-0-0--------0-0--------0-0---------|

|--------------------------------------|                     
|--------------------------------------|    
|--------------------------------------|    
|--------------------------------------|          
|---------12-12-----13-13------13\-----|
|--0-0-0--------0-0--------0-0---------|

|-----------------------------------------|
|-----------------------------------------|
|-----------------------------------------|
|--5--5-5-5--5-5-5--5-5-8--8-8-8--8-8-1---|
|--5--5-5-5--5-5-5--5-5-8--8-8-8--8-8-1---|
|--5--5-5-5--5-5-5--5-5-8--8-8-8--8-8-1---|

|------------------------------------|                     
|------------------------------------|    repeat this  
|------------------------------------|    riff  4 times
|--------7-7-----8-8-----8-8---------|          
|--------x-x-----x-x-----x-x---------|
|--0-0-0-7-7-0-0-8-8-0-0-8-8---------|


BRIDGE:
|-----  slowly -----------------------------------------|
|-----  turn down --------------------------------------|
|-----  volume knob ------------------------------------|
|-----  to minimize -------5-------5---3-3-3-3-3\1-1-1--|
|-----  distortion ------3-------3-----3-3-3-3-3\1-1-1--|
|--0--               --3-------3-------3-3-3-3-3\1-1-1--|

|------------------------------------------------------|
|------------------------------------------------------|
|------------------------------------------------------|
|-------------------------5-------5---3-3-3-3-3\1-1-1--|
|-----------------------3-------3-----3-3-3-3-3\1-1-1--|
|--0------------------3-------3-------3-3-3-3-3\1-1-1--|
      [2nd guitar plays FILL 1 here]

|------------------------------------------------------|
|------------------------------------------------------|
|------------------------------------------------------|
|-------------------------5-------5---3-3-3-3-3\1-1-1--|
|-----------------------3-------3-----3-3-3-3-3\1-1-1--|
|--0------------------3-------3-------3-3-3-3-3\1-1-1--|
[2nd guitar plays FILL 2 here]

|------------------------------------------------------|
|------------------------------------------------------|
|------------------------------------------------------|
|-------------------------5-------5---3-3-3-3-3\1-1-1--|
|-----------------------3-------3-----3-3-3-3-3\1-1-1--|
|--0------------------3-------3-------3-3-3-3-3\1-1-1--|

FILL 1:                                        FILL 2:
2nd Guitar:                                 2nd Guitar: with tremelo effect                                                                                    |---------------------------------|             |------------|
|---------------------------------|             |------------|
|---------------------------------|             |-------7----|
|---------------------------------|             |-------x----|
|---------------------------------|             |----0--5----|
|--.........pick scrape........---|             |--0---------|


SOLO:
Guitar 1 plays the verse 1 riff while Guitar 2 plays this with voice effect:
|--------------------------------         ------|  
|-------------------------------- repeat  ------|
|--5/7-7-7-7--7-7-7-7-7--7-7-7-7- riff    --8---|   
|--x-x-x-x-x--x-x-x-x-x--x-x-x-x- 3 times --x---|
|--3/5-5-5-5--5-5-5-5-5--5-5-5-5- then    --6---|
|--------------------------------         ------|


ENDING CHORUS:
Distorted guitar:
|--------------------------------------|                     
|--------------------------------------|    
|--------------------------------------|    
|--------------------------------------|          
|---------12-12-----13-13------13-13---|
|--0-0-0--------0-0--------0-0---------|

|--------------------------------------|                     
|--------------------------------------|    
|--------------------------------------|    
|--------------------------------------|          
|---------12-12-----13-13------13\-----|
|--0-0-0--------0-0--------0-0---------|

|------------------------------------------|
|------------------------------------------|
|------------------------------------------|
|--5--5-5-5--5-5-5--5-5-8--8-8-8--8-8-8----|
|--5--5-5-5--5-5-5--5-5-8--8-8-8--8-8-8----|
|--5--5-5-5--5-5-5--5-5-8--8-8-8--8-8-8----|

|--------------------------------------|                     
|--------------------------------------|    
|--------------------------------------|    
|--------------------------------------|          
|---------12-12-----13-13------13-13---|
|--0-0-0--------0-0--------0-0---------|

|--------------------------------------|                     
|--------------------------------------|    
|--------------------------------------|    
|--------------------------------------|          
|---------12-12-----13-13------13\-----|
|--0-0-0--------0-0--------0-0---------|

|-----------------------------------------|
|-----------------------------------------|
|-----------------------------------------|
|--5--5-5-5--5-5-5--5-5-8--8-8-8--8-8-1---|
|--5--5-5-5--5-5-5--5-5-8--8-8-8--8-8-1---|
|--5--5-5-5--5-5-5--5-5-8--8-8-8--8-8-1---|

|--------------------------------------|                     
|--------------------------------------|  repeat    
|--------------------------------------|  this  
|--------------------------------------|  riff        
|---------12-12-----13-13------13-13---| 3 times
|--0-0-0--------0-0--------0-0---------|

|------------------------------------|                     
|------------------------------------|    repeat this  
|------------------------------------|    riff  4 times
|--------7-7-----8-8-----8-8---------|          
|--------x-x-----x-x-----x-x---------|
|--0-0-0-7-7-0-0-8-8-0-0-8-8---------|


OUTRO:
2nd guitar with voice effect: 
|-----|
|-----|   
|-----|  Then fade out
|-----|
|-----|
|--0--| 
Comments