Godsmack - I Stand Alone Chords & Tabs

 

I Stand Alone Chords & Tabs

Godsmack Chords & Tabs

Version: 4 Type: Tab 0 ratings
1 star 2 stars 3 stars 4 stars 5 stars
comments

I Stand Alone Tab

   
I Stand Alone (Me email is misterteecerealkiller@netzero.net)
GodSmack
Scorpion King Soundtrack
Hola axemen, the song rocks, my tab is correct, do not dout the great phillip.
Tune Down 1 Full Step And Drop (D) CGCFAD

Intro and Refrain
D------------------------------------------------------------------------------
A------------------------------------------------------------------------------
F------------------------------------------------------------------------------
C------------------------------------------------------------------------------
G------------------------------------------------------------------------------
C-0-0-0-19-19-0-0-0-20-20-0-0-20-0-0-0-19-19-0-0-0-20-20-0-0-20-20-------------

then gtr 2 comes in and does this
D--------------------------------------------------------
A--------------------------------------------------------
F--------------------------------------------------------
C--------------------------------------------------------
G--------------------------------------------------------
C-0-0-0-7-7-0-0-0-8-8-0-0-8-8-0-0-0-7-7-0-0-0-8-8-0-0-8-8

verse
[ Tab from: http://www.guitartabs.cc/tabs/g/godsmack/i_stand_alone_tab_ver_4.html ]
D----------------------------------------
A----------------------------------------
F----------------------------------------
C----------------------------------------
G-0-0-0-0-0-0-5-6-6-6-0-0-0-0-0-0-5-3-3-3
C-0-0-0-0-0-0-5-6-6-6-0-0-0-0-0-0-5-3-3-3

D--------------------------------------
A--------------------------------------
F--------------------------------------
C--------------------------------------
G-0-0-0-0-0-0-5-6-6-6-0-0-0-0-0-0-x-x-x
C-0-0-0-0-0-0-5-6-6-6-0-0-0-0-0-0-x-x-x

end 1st verse holding power chord on 6th fret

end of 2nd verse go like this mmmmk

D-----------------
A-----------------
F-----------------
C-----------------
G-5(hold)-8(hold)-
C-5(hold)-8(hold)-

then refrain...

D------------------------------------------------------------------------------
A------------------------------------------------------------------------------
F------------------------------------------------------------------------------
C------------------------------------------------------------------------------
G-0-0-0-------0-0-0-------0-0----0-0-0-------0-0-0-------0-0----5(hold)-8(Hold)
C-0-0-0-19-19-0-0-0-20-20-0-0-20-0-0-0-19-19-0-0-0-20-20-0-0-20-5(Hold)-8(hold)

Interlude

D-------------------------------
A-------------------------------
F-------------------------------
C--------5(Bend)----------------
G----0----------2-4-4-4-0-2-2-2-
C-0-------------2-4-4-4-0-2-2-2-

Then gtr 2 does the verse riff while gtr 1 does some wha wha stuff, so figure it out YOURSELF!
Comments