Godsmack - I Stand Alone Chords & Tabs

 

I Stand Alone Chords & Tabs

Godsmack Chords & Tabs

Version: 3 Type: Tab 0 ratings
1 star 2 stars 3 stars 4 stars 5 stars
comments

I Stand Alone Tab

   
Author/Artist: Godsmack
Title: I Stand Alone
Transcribed by: Matt P
Email: bigmatt4411@hotmail.com

This is Godsmack's new single from "The Scorpion King" soundtrack. 
This is my first tab so any suggestions are welcome. 
There are some pick scrapes and distortion from a second guitar 
in the Bridge that I didn't include in the tab.
The tuning is in drop D.
D-a-D-g-b-e

Intro
------------------------------------------------------------------------------
------------------------------------------------------------------------------
------------------------------------------------------------------------------
------------------------------------------------------------------------------
-------10-10-----11-11-----11----Repeat-8-times-------------------------------
-0-0-0-------0-0-------0-0----------------------------------------------------
                                                                              
Verse 1 
-----------------|-------------------|-----------------|----------------|-----
-----------------|-------------------|-----------------|----------------|-----
-----------------|-------------------|-----------------|----------------|-----
-----------------|-------------------|-----------------|----------------|-----
-0--xx-0--xx-5-5-|-0--xx-0--xx-5-3-0-|-0--xx-0--xx-5-5-|-0--xx-0--xx-xx-|-----
-0--xx-0--xx-5-5-|-0--xx-0--xx-5-3-0-|-0--xx-0--xx-5-5-|-0--xx-0--xx-xx-|-----
                                                                              

-----------------|-------------------|----------------------------------------
-----------------|-------------------|----------------------------------------
-----------------|-------------------|----------------------------------------
-----------------|-------------------|----------------------------------------
-0--xx-0--xx-5-5-|-0--xx-0--xx-5-3-0-|-0--xx-0--xx-5-5-5~~~~~~~~-Let-Ring-----
-0--xx-0--xx-5-5-|-0--xx-0--xx-5-3-0-|-0--xx-0--xx-5-5-5~~~~~~~~--------------
                                                                              
Chorus 1
------------------------------------------------------------------------------
------------------------------------------------------------------------------
------------------------------------------------------------------------------
------------------------------------------------------------------------------
-------10-10-----11-11-----11--Repeat 4 times---------------------------------
-0-0-0-------0-0-------0-0----------------------------------------------------
                                                                              
Verse 2
-----------------|-------------------|-----------------|----------------|-----
-----------------|-------------------|-----------------|----------------|-----
-----------------|-------------------|-----------------|----------------|-----
-----------------|-------------------|-----------------|----------------|-----
-0--xx-0--xx-5-5-|-0--xx-0--xx-5-3-0-|-0--xx-0--xx-5-5-|-0--xx-0--xx-xx-|-----
-0--xx-0--xx-5-5-|-0--xx-0--xx-5-3-0-|-0--xx-0--xx-5-5-|-0--xx-0--xx-xx-|-----

[ Tab from: http://www.guitartabs.cc/tabs/g/godsmack/i_stand_alone_tab_ver_3.html ]
-----------------|-------------------|-----------------|----------------------
-----------------|-------------------|-----------------|----------------------
-----------------|-------------------|-----------------|----------------------
-----------------|-------------------|-----------------|----------------------
-0--xx-0--xx-5-5-|-0--xx-0--xx-5-3-0-|-0--xx-0--xx-5-5-|-0--xx-0--xx-5-3-0----
-0--xx-0--xx-5-5-|-0--xx-0--xx-5-3-0-|-0--xx-0--xx-5-5-|-0--xx-0--xx-5-3-0----
*Then play Fig 1A below

Fig 1A
------------------------------------------------------------------------------
------------------------------------------------------------------------------
------------------------------------------------------------------------------
------------------------------------------------------------------------------
-3-3-33-3--3-3/6-6-6-66-6--66--Strumming-pattern-isn't-exact------------------
-3-3-33-3--3-3/6-6-6-66-6--66-------------------------------------------------

Chorus 2
------------------------------------------------------------------------------
------------------------------------------------------------------------------
------------------------------------------------------------------------------
------------------------------------------------------------------------------
-----10-10-----11-11-----11--Repeat-2-times-then-play-Fig-1A...Repeat---------
-0-0-------0-0-------0-0------------------------------------------------------

Then play this
------------------------------------------------------------------------------
------------------------------------------------------------------------------
------------------------------------------------------------------------------
------0--0------0--0------0---------------------------------------------------
-----10-10-----11-11-----11--Repeat 4 times-then-play--0~~~~~~-Let-ring-------
-0-0--------0-0-------0-0------------------------------0~~~~~~----------------

Bridge
------------------------------------------|---------------------------------
------------------------------------------|---------------------------------
------------------------------------------|---------------------------------
-----3------3------0------0-Repeat 4 times|-----3-----3-Then-go-into-the-2nd
---3------3------0------0-----------------|---3-----3---half-of-Verse-1-----
-3------3------0------0-------------------|-3-----3-------------------------

Outro
------------------------------------------------------------------------------
------------------------------------------------------------------------------
------------------------------------------------------------------------------
------------------------------------------------------------------------------
-------10-10-----11-11-----11--Repeat-4-times-then-play-Fig-1A----------------
-0-0-0-------0-0-------0-0----------------------------------------------------


------------------------------------------------------------------------------
------------------------------------------------------------------------------
------------------------------------------------------------------------------
------------------------------------------------------------------------------
-----10-10-----11-11-----11--Repeat-2-times-then-play-Fig-1A------------------
-0-0-------0-0-------0-0------------------------------------------------------


------------------------------------------------------------------------------
------------------------------------------------------------------------------
------------------------------------------------------------------------------
------0--0------0--0------0---------------------------------------------------
-----10-10-----11-11-----11--Repeat-8-times-----------------------------------
-0-0--------0-0-------0-0-----------------------------------------------------


                                                                              

Comments