Godsmack - I Stand Alone Chords & Tabs

 

I Stand Alone Chords & Tabs

Godsmack Chords & Tabs

Version: 2 Type: Tab 0 ratings
1 star 2 stars 3 stars 4 stars 5 stars
comments

I Stand Alone Tab

   
This is the new single by Godsmack
Off of the Scorpion King soundtrack

Tuning: Drop C (C G C F A D)

Intro/Chorus
|----------------------------------|
|----------------------------------|
|----------------------------------|
|----------------------------------|
|-------12-12------13-13-----13-13-|
|-0-0-0-------0--0-------0-0-------|x7

Fill
|----------------------------|
|----------------------------|
|----------------------------|
|------------------------11\-|
|-------12-12------13-13-11\-|
|-0-0-0-------0--0-------11\-|

Verse
|-------------------------------------------|
|-------------------------------------------|
|-------------------------------------------|
|-0--x-x-0--x-x-6--6-6--0--x-x-0--x-x-5p3-3-|
|-0--x-x-0--x-x-6--6-6--0--x-x-0--x-x-5p3-3-|
|-0--x-x-0--x-x-6--6-6--0--x-x-0--x-x-5p3-3-|

|-------------------------------------------|
|-------------------------------------------|
|-------------------------------------------|
|-0--x-x-0--x-x-6--6-6--0--x-x-0--x-x--x--x-|
|-0--x-x-0--x-x-6--6-6--0--x-x-0--x-x--x--x-|
|-0--x-x-0--x-x-6--6-6--0--x-x-0--x-x--x--x-|

|--------------------------------------------------------------------|
|--------------------------------------------------------------------|
|--------------------------------------------------------------------|
|-0--x-x-0--x-x-6--6-6--0--x-x-0--x-x-5p3-3--0--x-x-0--x-x-6--6-6-6~-|
|-0--x-x-0--x-x-6--6-6--0--x-x-0--x-x-5p3-3--0--x-x-0--x-x-6--6-6-6~-|
|-0--x-x-0--x-x-6--6-6--0--x-x-0--x-x-5p3-3--0--x-x-0--x-x-6--6-6-6~-|

Chorus is the Intro played 3 times and play the fill at the end.
Play the 2nd Verse with the first 2 riffs the first time then play
the first riff 2 times then play this then play this:
|----------------------------------------------------|
|----------------------------------------------------|
|----------------------------------------------------|
|-5--5-5-5-5--5-5--5-5-8---8--8--8--8---8--8---8--8--|
|-5--5-5-5-5--5-5--5-5-8---8--8--8--8---8--8---8--8--|
|-5--5-5-5-5--5-5--5-5-8---8--8--8--8---8--8---8--8--|

2nd Chorus
|----------------------------------|
|----------------------------------|
|----------------------------------|
|----------------------------------|
|-------12-12------13-13-----13-13-|
|-0-0-0-------0--0-------0-0-------|x2

|----------------------------------------------------|
|----------------------------------------------------|
|----------------------------------------------------|
|-5--5-5-5-5--5-5--5-5-8---8--8--8--8---8--8---8--8--|
|-5--5-5-5-5--5-5--5-5-8---8--8--8--8---8--8---8--8--|
|-5--5-5-5-5--5-5--5-5-8---8--8--8--8---8--8---8--8--|
Repeat both these riffs twice.

|----------------------------------|
|----------------------------------|
|----------------------------------|
|----------------------------------|
|-------12-12------13-13-----13-13-|
|-0-0-0-------0--0-------0-0-------|x4

Bridge
|------|
|------|
|------|
|-0~~~-|
|-0~~~-|
|-0~~~-|
[ Tab from: http://www.guitartabs.cc/tabs/g/godsmack/i_stand_alone_tab_ver_2.html ]
|-------------------------|
|-------------------------|
|-------------------------|
|-----5-----5-----0-----0-|
|---3-----3-----0-----0---|
|-3-----3-----0-----0-----|x3 1/2
In the background another guitar has a funny effect on and is doing
pick scrapes and repeats these notes sometimes and other stuff.

Play ti over the solo:
|--------------------------------------------------------------------|
|--------------------------------------------------------------------|
|--------------------------------------------------------------------|
|-0--x-x-0--x-x-6--6-6--0--x-x-0--x-x-5p3-3--0--x-x-0--x-x-6--6-6-6~-|
|-0--x-x-0--x-x-6--6-6--0--x-x-0--x-x-5p3-3--0--x-x-0--x-x-6--6-6-6~-|
|-0--x-x-0--x-x-6--6-6--0--x-x-0--x-x-5p3-3--0--x-x-0--x-x-6--6-6-6~-|

Solo(w/ wah)
|-------------------------------------------------------|
|-------------------------------------------------------|
|-------------------------------------------------------|
|-10/12-12-12-12-12-12-12-12-12-12-12-12-12-12-12-10/12-|
|-------------------------------------------------------|
|-------------------------------------------------------|

|-------------------------------------------------------|
|-------------------------------------------------------|
|-------------------------------------------------------|
|-12-12-12-12-12-12-12\10-10-10-10\8-8-0-10/12-12-12-12-|
|-------------------------------------------------------|
|-------------------------------------------------------|

|-------------------------------------|
|-------------------------------------|
|-------------------------------------|
|-12-12-12-12-12-12-12-12-12-12-12-6~-|
|----------------------------------5~-|
|-------------------------------------|

Chorus
|----------------------------------|
|----------------------------------|
|----------------------------------|
|----------------------------------|
|-------12-12------13-13-----13-13-|
|-0-0-0-------0--0-------0-0-------|x4

|----------------------------------------------------|
|----------------------------------------------------|
|----------------------------------------------------|
|-5--5-5-5-5--5-5--5-5-8---8--8--8--8---8--8---8--8--|
|-5--5-5-5-5--5-5--5-5-8---8--8--8--8---8--8---8--8--|
|-5--5-5-5-5--5-5--5-5-8---8--8--8--8---8--8---8--8--|

|----------------------------------|
|----------------------------------|
|----------------------------------|
|----------------------------------|
|-------12-12------13-13-----13-13-|
|-0-0-0-------0--0-------0-0-------|x2

|----------------------------------------------------|
|----------------------------------------------------|
|----------------------------------------------------|
|-5--5-5-5-5--5-5--5-5-8---8--8--8--8---8--8---8--8--|
|-5--5-5-5-5--5-5--5-5-8---8--8--8--8---8--8---8--8--|
|-5--5-5-5-5--5-5--5-5-8---8--8--8--8---8--8---8--8--|

|----------------------------------|
|----------------------------------|
|----------------------------------|
|----------------------------------|
|-------12-12------13-13-----13-13-|
|-0-0-0-------0--0-------0-0-------|x4

|----------------------------|
|----------------------------|
|----------------------------|
|-0-0-0-7-7-0--0-8-8-0-0-8-8-|
|-0-0-0-7-7-0--0-8-8-0-0-8-8-|
|-0-0-0-7-7-0--0-8-8-0-0-8-8-|x4

And that's it. Any questions just e-mail me at youlookalikamon@hotmail.com

John.P



Comments