Godsmack - I Stand Alone Chords & Tabs

 

I Stand Alone Chords & Tabs

Godsmack Chords & Tabs

Version: 12 Type: Tab 0 ratings
1 star 2 stars 3 stars 4 stars 5 stars
comments

I Stand Alone Tab

Play ti over the solo:
|--------------------------------------------------------------------|
|--------------------------------------------------------------------|
|--------------------------------------------------------------------|
|-0--x-x-0--x-x-6--6-6--0--x-x-0--x-x-5p3-3--0--x-x-0--x-x-6--6-6-6~-|
|-0--x-x-0--x-x-6--6-6--0--x-x-0--x-x-5p3-3--0--x-x-0--x-x-6--6-6-6~-|
|-0--x-x-0--x-x-6--6-6--0--x-x-0--x-x-5p3-3--0--x-x-0--x-x-6--6-6-6~-|
[ Tab from: http://www.guitartabs.cc/tabs/g/godsmack/i_stand_alone_tab_ver_12.html ]
Solo(w/ wah)
|-------------------------------------------------------|
|-------------------------------------------------------|
|-------------------------------------------------------|
|-10/12-12-12-12-12-12-12-12-12-12-12-12-12-12-12-10/12-|
|-------------------------------------------------------|
|-------------------------------------------------------|

|-------------------------------------------------------|
|-------------------------------------------------------|
|-------------------------------------------------------|
|-12-12-12-12-12-12-12\10-10-10-10\8-8-0-10/12-12-12-12-|
|-------------------------------------------------------|
|-------------------------------------------------------|

|-------------------------------------|
|-------------------------------------|
|-------------------------------------|
|-12-12-12-12-12-12-12-12-12-12-12-6~-|
|----------------------------------5~-|
|-------------------------------------|
Comments