Godsmack - I Stand Alone Chords & Tabs

 

I Stand Alone Chords & Tabs

Godsmack Chords & Tabs

Version: 3 Type: Bass Tab 0 ratings
1 star 2 stars 3 stars 4 stars 5 stars
comments

I Stand Alone Bass Tab

Intro
(No bass)

G:------------------------
D:------------------------
A:------------------------
E:------------------------

G:---00---11-1------------
D:------------------------
A:333---33--3-------------
E:------------------------
Repeat 4x

Verse
[ Tab from: http://www.guitartabs.cc/tabs/g/godsmack/i_stand_alone_btab_ver_3.html ]
G:------------------------
D:-------------------------
A:3-33-3-33---33-3-33-3----3
E:----------3----------3-0
Repeat 4x

pre-chorus
Sme as verse but,
G:------------------------
D:---4---4----4----4------
A:------------------------
E:------------------------

Chorusx2 then

G:------------------------
D:-------------1111-------
A:----33333---------------
E:------------------------
Repeat 2x after chorusx2

Repeat above tab then go back to pre-chorus then chorus then end song
Comments