Godsmack - I Stand Alone Chords & Tabs

 

I Stand Alone Chords & Tabs

Godsmack Chords & Tabs

Version: 2 Type: Bass Tab 0 ratings
1 star 2 stars 3 stars 4 stars 5 stars
comments

I Stand Alone Bass Tab

   
Godsmack
I Stand Alone

Transcribed By: Ryan Huntsman  (IbanezBassMX)
Email: Ryan82184@aol.com

Tunning: tune to Drop D tunning first and then tune it down one whole step.
low to high: (C,G,C,F)

F--------------------------------------
C--------------------------------------
G--------------------------------------
C-0~~~--------------------------3--5/--

(0:11)
F-------------------------
C-------------------------  X2
G-------------------------
C-0-0-0-----0-0-0----0-0--

F----------------------------
C----------------------------
G----------------------------
C-0-0-0----0-0-0----0-0-12/--

Verses  (0:23, 0:57)
F-----------------------------------------------------------
C-----------------------------------------------------------
G-----------------------------------------------------------
C-0---0--4-0-0~-0-4-0--6--6-6--0---0-4-0-0~-0-4-0--5/3-2-3--

F----------------------------------------------
C----------------------------------------------
G----------------------------------------------
C-0---0-4-0-0~-0-4-0-6---6-6---0---0-4-0-0~-0--

F----------------------------------------------------------
C----------------------------------------------------------
G----------------------------------------------------------
C-0---0-4-0-0~-0-4-0-6-6-6-6---0---0-4-0-0~-0-4-0-5/3-3-3--

F-----------------------------------------------------
C-----------------------------------------------------
G-----------------------------------------------------
C-0----0-7-0-0~-0-4-0-6-6-6-0---6~----------6-----6/--

F-------------------------
C-------------------------  X2
G-------------------------
C-0-0-0-----0-0-0----0-0--

F----------------------------
C----------------------------
G----------------------------
C-0-0-0----0-0-0----0-0-12/--

F----------------------------
C----------------------------
G----------------------------
C-0--0-4-0-0~-0-4-0-5/3-3-0--

Pre-Chorus  (1:19)
F--------------------------------------------
C--------------------------------------------
G--------------------------------------------
C-5--5~-5-5~-5-5-5\8--8--8~-8-8~-8-0-0-1--1--
[ Tab from: http://www.guitartabs.cc/tabs/g/godsmack/i_stand_alone_btab_ver_2.html ]
2nd Chorus  (1:25, 3:03)
F---------------------------------------------------------------
C---------------------------------------------------------------
G---------------------------------------------------------------
C-0-0-0-------0-0-0-----0-0------0-0-0-------0-0-0-----0-0-0-0--

F------------------------------------------------------
C------------------------------------------------------
G------------------------------------------------------
C-5---5~-5-5~-5--5-5--5\8---8---8~-8-8~-8-8-8-8-8-8-8--

F---------------------------------------------------------------
C---------------------------------------------------------------
G---------------------------------------------------------------
C-0-0-0-------0-0-0-----0-0------0-0-0-------0-0-0-----0-0-0-0--

F-------------------------------------
C-------------------------------------  X4
G-------12~-12-------13-13-----13-13--
C-0-0-0--------0-0-0-------0-0--------

Bridge  (1:59)   X3
F------------------------------------------------------------------------------------
C------------------------------------------------------------------------------------
G------------------------------------------------------------------------------------
C-0-0~-0-0~-0-0-0-0-0--0-0~-0-0~-0-0-0--3-3~-3-3~-3-3-3-3--3-3~-3-3-0-3-3-3-0-1-1-1--

F------------------------------------------------------------------------------------
C------------------------------------------------------------------------------------
G------------------------------------------------------------------------------------
C-0-0~-0-0~-0-0-0--0--0~-0-0~--0-0--3--3~-3-3~-3-3-3-3-3--3--3~-3-3-0-3-3-3-0-1-1-1--

Interlude  (2:46)
F----------------------------------------------------------------
C----------------------------------------------------------------
G----------------------------------------------------------------
C-0----0--4-0-0~-4---0--6-6-6-6---0----0--4-0-0~-0-4-0--5/3-3-3--

F-------------------------------------------------------
C-------------------------------------------------------
G-------------------------------------------------------
C-0-----0--4-0-0~-0-4-0--6-6-6-0---6----------6-----6/--

3rd Chorus  (2:58)
F-------------------------
C-------------------------  X2
G-------------------------
C-0-0-0-----0-0-0----0-0--

F----------------------------
C----------------------------
G----------------------------
C-0-0-0----0-0-0----0-0-12/--

(3:28)
F--------------------------------
C--------------------------------  X2
G--------------------------------
C-0-0-0-7~-7-0-0-0-8--8-0-0-8-8--

Thats it, have fun. GW
This tab is 100% correct. 
Please rate this tab, Thanks.
Comments