Godsmack - I Stand Alone Chords & Tabs

 

I Stand Alone Chords & Tabs

Godsmack Chords & Tabs

Version: 1 Type: Bass Tab 0 ratings
1 star 2 stars 3 stars 4 stars 5 stars
comments

I Stand Alone Bass Tab

Godsmack-I stand alone
Ive seen ALOT of guitar tabs for this song but no bass tabs so i tabbed it myself, im not
a bassist so this might be wrong  

Intro
G--------------------------------------------
D--------------------------------------------
A--------------------------------------------
E--0-0-0-0-0-0-0-0-0-0-0-0-0-0-0-0-0---------Repeat as many times as needed

Verse
G-------------------------------------------
D-------------------------------------------
A-----------1-1-------------0---------------
E-0--0-0-0-------0--0-0-0-----3-3-----------

Chorus
G--------------------------------------------
D--------------------------------------------
A--------------------------------------------
E--0-0-0-0-0-0-0-0-0-0-0-0-0-0-0-0-0---------

Verse
G-------------------------------------------
D-------------------------------------------
A-----------1-1-------------0---------------
E-0--0-0-0-------0--0-0-0-----3-3-----------

Verse Part 2
G-------------------------------------------
D-------------------------------------------
A--0-0-0-0-0-0---3-3-3-3-3------------------
E-------------------------------------------
"Im not afriad of fading"
[ Tab from: http://www.guitartabs.cc/tabs/g/godsmack/i_stand_alone_btab.html ]
Chorus
G--------------------------------------------
D--------------------------------------------
A--------------------------------------------
E--0-0-0-0-0-0-0-0-0-0-0-0-0-0-0-0-0---------

G-------------------------------------------
D-------------------------------------------
A--0-0-0-0-0-0---3-3-3-3-3------------------
E-------------------------------------------

2nd Chorus part
Chorus
G--------------------------------------------
D--------------------------------------------
A---------12-12------13-13-------13-13-------
E--0-0-0---------0-0--------0-0--------------


Bridge
G-------------------------------------------
D-------5---------7-------------------------
A-----3---------5---------------------------
E---3-----3---5------5---0-0-0-0-0----------

G-------------------------------------------
D-------------------------------------------
A-----------1-1-------------0---------------
E-0--0-0-0-------0--0-0-0-----3-3-----------

Chorus
G--------------------------------------------
D--------------------------------------------
A--------------------------------------------
E--0-0-0-0-0-0-0-0-0-0-0-0-0-0-0-0-0---------

G-------------------------------------------
D-------------------------------------------
A--0-0-0-0-0-0---3-3-3-3-3------------------
E-------------------------------------------


and thats it, any comments or suggestions leave a comment below
Comments