Godsmack - I Fucking Hate You Chords & Tabs

 

I Fucking Hate You Chords & Tabs

Godsmack Chords & Tabs

Version: 4 Type: Tab 0 ratings
1 star 2 stars 3 stars 4 stars 5 stars
comments

I Fucking Hate You Tab

   
Tuning is Drop C: C,G,C,F,A,D

Intro/Verse

D------------------------------------------
A------------------------------------------
F------------------------------------------
C------------------------------------------
G-0-0--------------------------------------
C-0-0----18-0-18-0-18-0-18-0-18-0----------

Pre-Chorus:
[ Tab from: http://www.guitartabs.cc/tabs/g/godsmack/i_fucking_hate_you_tab_ver_4.html ]
D------------------------------------------
A------------------------------------------
F--2-2-2-2-----8-8-8-8---------------------
C--2-2-2-2-----8-8-8-8---------------------
G--0-0-0-0-----6-6-6-6---------------------
C--0-0-0-0-----6-6-6-6---------------------

D------------------------------------------
A------------------------------------------
F--2-2-2-2---------------------------------
C--2-2-2-2---------------------------------
G--0-0-0-0-----0-6-0-6-0-6-0-6-6-6-6-------
C--0-0-0-0-----0-6-0-6-0-6-0-6-6-6-6-------


Chorus:

D------------------------------------------
A------------------------------------------
F------------------------------------------
C-------0-3-5/6-5--------------------------
G-0-0---0-3-5/6-5--------------------------
C-0-0---0-3-5/6-5--------------------------

This tab is right, just listen to it for strumming patterns..pretty easy.
GODSMACK RULES!!!
Comments