Godsmack - I Fucking Hate You Chords & Tabs

 

I Fucking Hate You Chords & Tabs

Godsmack Chords & Tabs

Version: 3 Type: Tab 0 ratings
1 star 2 stars 3 stars 4 stars 5 stars
comments

I Fucking Hate You Tab

this is a sweet song
the tunning is cgcfad

intro
---------------------------------------------------------------
---------------------------------------------------------------
---------------------------------------------------------------
-0-0-------------------------------------------------x4--------
-0-0-----------------------------------------------------------
-0-0--17/18-18-18-18-17/18-18-18-18-17/18-18-18-18-18----------

---------------------------------------------------------------
---------------------------------------------------------------
---------------------------------------------------------------
-0-0--3-3-3---5-5-5---6-6-6---5-5-5---3-3-3--------------------
-0-0--3-3-3---5-5-5---6-6-6---5-5-5---3-3-3--------------------
-0-0--3-3-3---5-5-5---6-6-6---5-5-5---3-3-3--------------------

[ Tab from: http://www.guitartabs.cc/tabs/g/godsmack/i_fucking_hate_you_tab_ver_3.html ]
---------------------------------------------------------------
---------------------------------------------------------------
----------------------------------------------------x4---------
-0-0-----------------------------------------------------------
-0-0-----------------------------------------------------------
-0-0--17/18-18-18-18--17/18-18-18-18--17/18-18-18-18-----------


---------------------------------------------------------------
-3-----3-------------------------------------------------------
-2-----2-------------------------------------------------------
-0--6--0---5-6-5-6-5-6-5-6-5--x2-------------------------------
-0--6--0---5-6-5-6-5-6-5-6-5-----------------------------------
-0--6--0---5-6-5-6-5-6-5-6-5-----------------------------------

------------------------------------------------------------------
------------------------------------------------------------------
------------------------------------------------------------------
-0-0--3-3-3--5-5-5--6-6-6--5-5-5--0-0--3-3-3--5-5-5--6-6-6--5-5-5-
-0-0--3-3-3--5-5-5--6-6-6--5-5-5--0-0--3-3-3--5-5-5--6-6-6--5-5-5-
-0-0--3-3-3--5-5-5--6-6-6--5-5-5--0-0--3-3-3--5-5-5--6-6-6--5-5-5-          


thats all i have it is pretty acurate u have to listen to the song
to get the really cool part of it
Comments