Godsmack - I Fucking Hate You Chords & Tabs

 

I Fucking Hate You Chords & Tabs

Godsmack Chords & Tabs

Version: 1 Type: Tab 0 ratings
1 star 2 stars 3 stars 4 stars 5 stars
comments

I Fucking Hate You Tab

Godsmack
I Fucking Hate You
Faceless (Track #7)
Tabbed by: Robert Walden
Tuning: CGCFAD

Intro/Verse
--------------------------------------
--------------------------------------
--------------------------------------
-00-----------------------------------
-00---11-11----11-11----11-11----11-11
-00-0--------0-------0--------0-------

Chorus "Cuz I fucking hate you...."
---------------
---------------
---------------
-00-33-5555-6-5
-00-33-5555-6-5
-00-33-5555-6-5
[ Tab from: http://www.guitartabs.cc/tabs/g/godsmack/i_fucking_hate_you_tab.html ]
Prechorus "You pull me down...."
-------------------------------
-------------------------------
-------------------------------
-00-----66-----00-----060606066
-00-----66-----00-----060606066
-00-----66-----00-----060606066
 ^^     ^^     ^^
let these ring

Bridge
--
--
--
-0 <--
-0 <--
-0 <--let ring

Song Order
Verse X4
Chorus X4( on the 4th time do the verse once instead)then do 4 more choruses
(last one palm muted)
Verse X I didn't count it, i mean c'mon, just listen to figure out
Prechorus X2
Chorus X4 (on the 4th time do the verse once instead) then do 4 more choruses
Bridge X1( let ring)
Verse X (didnt count again, figure it out)
Prechorus X2
Chorus X12 ( on the 4th time do the verse once instead, also on the 8th and 12th)

Thats all folks! IM me for comments at kornfellow91 on AIm...more godsmack tabs
on the way trust me...thanks!
Comments