Godsmack - Hollow Chords & Tabs

 

Hollow Chords & Tabs

Godsmack Chords & Tabs

Version: 1 Type: Tab

Hollow Tab

   
Hollow
Godsmack
Track number 5 from IV (2006)
Tunning: 1/2 Step down ; usually this is the Godsmack tunning for ballads

Guitar 1: played by Sully (playing all the basic chords)(this is shown above of the tab bars)
Guitar 2: Played by Tony  (playing the open strings chords)
Guitar 3: Played by Tony  (playing the hight nothes you hear)

If you play solo i sujest you  learn Guitar 1 part and play somo of the parts of Guitar
Guitar 2 is not necesary to
make the song sound right, its more like an arrenge guitar to cover the mandoline and 
part.

Intro: Starts with very low volume, you cant acually hear the first compas before the 3 
part

Guitar 2
     Em                               C          D         Em
eb||--0--0-0-0--0--0-0-0--0--0-0-0--|--0---------0---------0--||
Bb||--0--0-0-0--0--0-0-0--0--0-0-0--|--0---------0---------0--||
Gb||--9--9-9-9--9--9-9-9--9--9-9-9--|--5---------7---------9--|| x5
Db||--9--9-9-9--9--9-9-9--9--9-9-9--|--5---------7---------9--||
Ab||--7--7-7-7--7--7-7-7--7--7-7-7--|--3-(3)/(5)-5-(5)/(7)-7--||
Eb||--0--0-0-0--0--0-0-0--0--0-0-0--|-------------------------||

Guitar 3
     Em                               C          D         Em
eb||--7-7-7--7/5-7-7-7--7/5-7-7-7---|--0---(0)---0---(0)---0--||
Bb||--8-8-8--8---8-8-8--8---8-8-8---|--5----5----7----7----8--||
Gb||--9-9-9--9---9-9-9--9---9-9-9---|--5--5------7--7------9--||x3
Db||--9-9-9--9---9-9-9--9---9-9-9---|--5---------7---------9--||
Ab||--------------------------------|--3---------5---------7--||
Eb||--------------------------------|-------------------------||
     Em                               C          D         Em
eb||--8-8-8/7-7-7/5-5-57-7-7h8-8---|--0---(0)---0---(0)---0-----||
Bb||--8-8-8-8-8-8-8-8-8-8-8-8-8-8---|--5----5----7----7----8----||
Gb||--------------------------------|--5--5------7--7------9----||x2
Db||--------------------------------|--5---------7---------9----||
Ab||--------------------------------|--3---------5---------7----||
Eb||--------------------------------|---------------------------||


Verse 1: very long and boring to play

Guitar 2
     Em                                C         D         Em
eb||--0--0-0-0--0--0-0-0--0--0-0-0--|--0---------0---------0--||
Bb||--0--0-0-0--0--0-0-0--0--0-0-0--|--0---------0---------0--||
Gb||--9--9-9-9--9--9-9-9--9--9-9-9--|--5---------7---------9--|| x3
Db||--9--9-9-9--9--9-9-9--9--9-9-9--|--5---------7---------9--||
Ab||--7--7-7-7--7--7-7-7--7--7-7-7--|--3-(3)/(5)-5-(5)/(7)-7--||
Eb||--0--0-0-0--0--0-0-0--0--0-0-0--|-------------------------||

Guitar 3
     Em                                C         D         Em
eb||--7-7-7--7---7-7-7--7---7-7-7---|--0---(0)---0---(0)---0--||
Bb||--8-8-8--8---8-8-8--8---8-8-8---|--5----5----7----7----8--||
Gb||--9-9-9--9---9-9-9--9---9-9-9---|--5--5------7--7------9--||x3
Db||--9-9-9--9---9-9-9--9---9-9-9---|--5---------7---------9--||
Ab||--------------------------------|--3---------5---------7--||
Eb||--------------------------------|-------------------------||


Pre-Chorus; this is actually the las line of the verse, the change the last E to a C
the chorus start,
            and in the middle of the verses, listen carefully

Guitar 2
     Em                                C         D         C       C         D         Em
eb||--0--0-0-0--0--0-0-0--0--0-0-0--|--0---------0----------0-0-0--0---------0---------0-||
Bb||--0--0-0-0--0--0-0-0--0--0-0-0--|--0---------0----------5-5-5--5---------7---------9-||
Gb||--9--9-9-9--9--9-9-9--9--9-9-9--|--5---------7----------5-5-5--5---------7---------9-||
Db||--9--9-9-9--9--9-9-9--9--9-9-9--|--5---------7----------5-5-5--5---------7---------9-||
Ab||--7--7-7-7--7--7-7-7--7--7-7-7--|--3-(3)/(5)-5-(5)(3)--3-3-3--3-(3)/(5)-5-(5)/(7)-7--||
Eb||--0--0-0-0--0--0-0-0--0--0-0-0--|----------------------------------------------------||

Guitar 3
     Em                                C         D         Em
eb||--7-7-7--7---7-7-7--7---7-7-7---|--0---(0)---0---(0)---3-3-3--0---(0)----0---(0)---0----||
Bb||--8-8-8--8---8-8-8--8---8-8-8---|--5----5----7----7----1-1-1--5----5-----7----7----8----||
Gb||--9-9-9--9---9-9-9--9---9-9-9---|--5--5------7--7------0-0-0--5--5-------7--7------9----||
Db||--9-9-9--9---9-9-9--9---9-9-9---|--5---------7---------2-2-2--5----------7---------9----||
Ab||--------------------------------|--3---------5---------3-3-3--3----------5---------7----||
Eb||--------------------------------|-------------------------------------------------------||

Verse 2:play verse 1 for all guitaras again
Pre-Chrous: play Pre-Chrous 1 for all guitaras again


Chorus: the chorus is quite long in the tab, but is easy to play dont de fool by my
way to tab it
[ Tab from: http://www.guitartabs.cc/tabs/g/godsmack/hollow_tab.html ]
Guitar 2
     Em                                    Em
eb||--0---0-0-0---0---0-0-0---0---0-0-0--|--0---------0---------0--||
Bb||--0---0-0-0---0---0-0-0---0---0-0-0--|--0---------0---------0--||
Gb||--9---9-9-9---9---9-9-9---9---9-9-9--|--5---------7---------9--||
Db||--9---9-9-9---9---9-9-9---9---9-9-9--|--5---------7---------9--||
Ab||--7---7-7-7---7---7-7-7---7---7-7-7--|--3-(3)/(5)-5-(5)/(7)-7--||
Eb||--0---0-0-0---0---0-0-0---0---0-0-0--|-------------------------||
                                                                          I
Guitar 3
     Em                                    Em
eb||--171717/151515/121212151515p14-14--|--0---(0)---0---(0)---0-----||
Bb||-------------------------------------|--5----5----7----7----8----||
Gb||-------------------------------------|--5--5------7--7------9----||
Db||-------------------------------------|--5---------7---------9----||
Ab||-------------------------------------|--3---------5---------7----||
Eb||-------------------------------------|---------------------------||

Then......

Guitar 2
      F                                    F
eb||--0---0-0-0---0---0-0-0---0---0-0-0--|--0--------0----------0--||
Bb||--1---1-1-1---1---1-1-1---1---1-1-1--|--0--------0----------0--||
Gb||--2---2-2-2---2---2-2-2---2---2-2-2--|--5--------7----------9--||
Db||--3---3-3-3---3---3-3-3---3---3-3-3--|--5--------7----------9--||
Ab||--3---3-3-3---3---3-3-3---3---3-3-3--|--3-(3)/(5)-5-(5)/(7)-7--||
Eb||-(1)-(1-1-1)-(1)-(1-1-1)-(1)-(1-1-1)-|-------------------------||
                                                                           II
Guitar 3
     F                                      F
eb||-------------------------------------|--0---(0)---0---(0)---0----||
Bb||--171717/151515/121212151515p13-13--|--5----5----7----7----8-----||
Gb||-------------------------------------|--5--5------7--7------9----||
Db||-------------------------------------|--5---------7---------9----||
Ab||-------------------------------------|--3---------5---------7----||
Eb||-------------------------------------|---------------------------||


and then , play all this two parts againg , I mean I and II angaing
after that play this to end the chorus ....

Guitar 2
      G                                F                                Asus2
eb||--0--0-0-0--0--0-0-0--0--0-0-0--|--0--0-0-0--0--0-0-0--0--0-0-0--|--0--0-0-0--0--0-0-0--0--0-0-0--||
Bb||--0--0-0-0--0--0-0-0--0--0-0-0--|--0--0-0-0--0--0-0-0--0--0-0-0--|--0--0-0-0--0--0-0-0--0--0-0-0--||
Gb||--4--4-4-4--4--4-4-4--4--4-4-4--|--2--2-2-2--2--2-2-2--2--2-2-2--|--6--6-6-6--6--6-6-6--6--6-6-6--||
Db||--5--5-5-5--5--5-5-5--5--5-5-5--|--3--3-3-3--3--3-3-3--3--3-3-3--|--7--7-7-7--7--7-7-7--7--7-7-7--||
Ab||--5--5-5-5--5--5-5-5--5--5-5-5--|--3--3-3-3--3--3-3-3--3--3-3-3--|--7--7-7-7--7--7-7-7--7--7-7-7--||
Eb||--3--3-3-3--3--3-3-3--3--3-3-3--|--1--1-1-1--1--1-1-1--1--1-1-1--|--5--5-5-5--5--5-5-5--5--5-5-5--||

Guitar 3
     G                                F                                Asus2
eb||--3--3-3-3--3--3-3-3--3--3-3-3--|--1--1-1-1--1--1-1-1--1--1-1-1--|--5--5-5-5--5--5-5-5--5--5-5-5--||
Bb||--3--3-3-3--3--3-3-3--3--3-3-3--|--1--1-1-1--1--1-1-1--1--1-1-1--|--0--0-0-0--0--0-0-0--0--0-0-0--||
Gb||--4--4-4-4--4--4-4-4--4--4-4-4--|--2--2-2-2--2--2-2-2--2--2-2-2--|--6--6-6-6--6--6-6-6--6--6-6-6--||
Db||--------------------------------|--------------------------------|--------------------------------||
Ab||--------------------------------|--------------------------------|--------------------------------||
Eb||--------------------------------|--------------------------------|--------------------------------||


Bridge: this is played after the choruses, is basicly the intro againg


Outro: is basicly the intro againg, just faiding away with the volume

Chords for guitar 1
     Em     C     D     G   Asus2   F
eb||--0--|--3--|--2--|--3--|--0--|--1--||
Bb||--0--|--1--|--3--|--3--|--0--|--1--||
Gb||--0--|--0--|--2--|--0--|--2--|--2--||
Db||--2--|--2--|--0--|--0--|--2--|--3--||
Ab||--2--|--3--|--0--|--2--|--0--|--3--||
Eb||--0--|-----|-----|--3--|-----|--1--||


NOTE: LET ME EXPLAIN THE TAB QUICKLY, THE SONG IS FOR 3 GUITARS, ALL ACUSTIC, AND
1/2 STEP DOWN.
      THE INTRO HAVE NO TROUBLE PLAY WHATS THERE.
      THE VERSE AND PRE-CHORUS SHOWN ARE ACCTUALLY THE FIRSTE VERSE, AT THE MIDDLE OF IT
MAKE THE SAME CHANGE
      THAT THE THEY DO ON THE PRECHORUS.
      THE CHORUS HAVE TWO PARTS THE FIST IS BASED OF THE CHRDS OF THE FIST GUITAR AND 
CHORDS THING THEY PLAY ALL THE
      SONG, THE FIST GUITAR DOESNT PLAY THOUSE 3 CHORDS ON THE CHORUS.
      THE CHORUS CHANGE AT THE END ON A EASY CHORD PROGRETION BEFORE THE BRIDGE
      INTRO,BRIDGES AND OUTRO ARE THE SAME.

ENJOY THE TAB AND RATE IT PLEASE, I THINK ITS PRETTY MUCH OK.