Godsmack - Greed Chords & Tabs

 

Greed Chords & Tabs

Godsmack Chords & Tabs

Version: 1 Type: Tab 0 ratings
1 star 2 stars 3 stars 4 stars 5 stars
comments

Greed Tab

I've been asked several times to tab out this song and i told everyone
I would get around to it eventually.  Sorry -- i've been a little busy
but here it is -- GODSMACK's "Greed" off of their AWAKE CD.

The tuning for this song is Drop D Tuned down a whole step
Tuning from low to high is: C - G - C - F - A - D

p= pull off
/= slide up
\= slide down
b= bend full
b(1/2)= bend half

INTRO: 
---------------------------------------------------------------------
---------------------------------------------------------------------
---------------------------------------------------------------------
---------------------------------------------------------------------
--0------3-p-0--0--0-----3-p-0--0--0---0----0--0--3-p-0--0--0--------
--0------3-p-0--0--0-----3-p-0--0--0---0----0--0--3-p-0--0--0--------
_____________________________________________________________________

-------------------|--------------------------------------------------
-------------------|--------------------------------------------------
-------------------|--------------------------------------------------
-------------------|--------------------------------------------------
--0--3--0--5/6--6--|--------------------------------------------------
--0--3--0--5/6--6--|--------------------------------------------------
Repeat the intro 3X then go to this which also gets played under the 
verses:
----------------------------------------------------------------------
----------------------------------------------------------------------
----------------------------------------------------------------------
----------------------------------------------------------------------
--0------3-p-0--0--0-------3-p-0--0--0----0---0--0--3-p-0--0--0-------
--0------3-p-0--0--0-------3-p-0--0--0----0---0--0--3-p-0--0--0-------
_____________________________________________________________________
_____________________________________________________________________
CHORUS:
"hard to find. .. . . .                     
---------------------------------------------------------------------
---------------------------------------------------------------------
---------------------------------------------------------------------
---------7---7--7--7\5--5--5--5--5--8----------7---7--7--7\5--5--5--5
--0------5---5--5--5\3--3--3--3--3--6---0------5---5--5--5\3--3--3--3
--0-------------------------------------0----------------------------
______________________________________________________________________
                      
              
---------------------------------------------------------------------
---------------------------------------------------------------------
---------------------------------------------------------------------
-5--8-------7---7--7--7\5--5--5--5--5--8-----5----5----5---5--5--5--5
-3--6---0---5---5--5--5\3--3--3--3--3--6-----3----3----3---3--3--3--3
--------0------------------------------------------------------------
______________________________________________________________________

    
---------------------------------------------------------------------
---------------------------------------------------------------------
---------------------------------------------------------------------
-5--8--------7---7--7--7\5--5--5--5--5--8--------7---7--7--7\5--5--5-
-3--6----0---5---5--5--5\3--3--3--3--3--6----0---5---5--5--5\3--3--3-
---------0-----------------------------------0-----------------------
______________________________________________________________________

                  
---------------------------------------------------------------------
---------------------------------------------------------------------
---------------------------------------------------------------------
-5--5--8--------7---7--7--7\5--5--5--5--5--8-----5---5---5-----------
-3--3--6----0---5---5--5--5\3--3--3--3--3--6-----3---3---3---3---3---
------------0------------------------------------------------3---3---
_____________________________________________________________________

-------|---
-------|---
-------|---
-------|---
-1--1--|---
-1--1--|---
__________________________________________
__________________________________________
BRIDGE: (repeat 3X)
---------------------------------------------------------------------
---------------------------------------------------------------------
---------------------------------------------------------------------
--0----------------------------6--6--6--6--3--3----------------------
--0----------------------------6--6--6--6--3--3----------------------
--0----------------------------6--6--6--6--3--3----------------------
______________________________________________________________________

                          Yeah Yeah Yeah Yeah. . . . 
---------------------------------------------------------------------
---------------------------------------------------------------------
-------------------------8-------------------------------------------
-------------------------7-------------------------------------------
--0--0--0---0--0--0------6-------------------------------------------
--0--0--0---0--0--0--------------------------------------------------
_____________________________________________________________________
_____________________________________________________________________
[ Tab from: http://www.guitartabs.cc/tabs/g/godsmack/greed_tab.html ]
Guitar Solo: (w/wah)
---------------------------------------------------------------------
---10--10--10----X---10--10--10---10--10--10----10---10---X--X--X----
---10--10--10----X---10--10--10---10--10--10----10---10---X--X--X----
---------------------------------------------------------------------
---------------------------------------------------------------------
---------------------------------------------------------------------
_____________________________________________________________________

---------------------------------------------------------------------
--10--10--10--10--10--10--10--10-------------------------------------
--10--10--10--10--10--10--10--10-------------------------------------
------------------------------------12~~~~~~~~~~~10--12--10--12~~~~~~
---------------------------------------------------------------------
---------------------------------------------------------------------
_____________________________________________________________________

----------------------10--10--10------10---10---10----10~~~~~~~~~~~--
--10------10----------9---9---9-------13b--13b--13b---13~~~~~~~~~~~--
--10------10---------------------------------------------------------
------12------12-----------------------------------------------------
---------------------------------------------------------------------
---------------------------------------------------------------------
_____________________________________________________________________

---------------------------------------------------------------------
-10---10---10--------------------------------------------------------
-12b--12b--12b----12b(release bend)--12~~~~~~~~~~~~------------------
---------------------------------------------------------------------
---------------------------------------------------------------------
---------------------------------------------------------------------
______________________________________________________________________

----------------------13---15--15b(1/2)---15b(1/2)---13---15~~~~~~~~~
-sl-------13---15----------------------------------------------------
--/14----------------------------------------------------------------
---------------------------------------------------------------------
---------------------------------------------------------------------
---------------------------------------------------------------------
______________________________________________________________________
      sl
--(15)\--17---13---15----15b(1/2)-----13-----------------------------
---------------------------------------------------------------------
---------------------------------------------------------------------
---------------------------------------------------------------------
---------------------------------------------------------------------
---------------------------------------------------------------------
______________________________________________________________________
______________________________________________________________________
Guitar I riff under the solo: (repeat 1X)
----------------------------------------------------------------------
----------------------------------------------------------------------
----------------------------------------------------------------------
----------------------------------------------------------------------
-0---3-p-0--0--0----3-p-0--0--0---0---0--0--0---3-p-0--0--0---0--3--0-
-0---3-p-0--0--0----3-p-0--0--0---0---0--0--0---3-p-0--0--0---0--3--0-
______________________________________________________________________

----------------------------------------------------------------------
----------------------------------------------------------------------
----------------------------------------------------------------------
----------------------------------------------------------------------
-5/6--6----0-----3-p-0--0--0---3-p-0--0--0---1--1--1--1-1-1-1-3-3-3---
-5/6--6----0-----3-p-0--0--0---3-p-0--0--0---1--1--1--1-1-1-1-3-3-3---
______________________________________________________________________
______________________________________________________________________
End the song with this:
  "Greedy little baby. . . .
----------------------------------------------------------------------
----------------------------------------------------------------------
----------------------------------------------------------------------
--5----5----5---------------------------------------------------------
--3----3----3-------3---3--1--1-------0--3-p-0--0--0----3-p-0--0--0---
--------------------3---3--1--1-------0--3-p-0--0--0----3-p-0--0--0---
______________________________________________________________________

----------------------------------------------------------------------------
----------------------------------------------------------------------------
----------------------------------------------------------------------------
----------------------------------------------------------------------------
-0--0-0-3-p-0-0-0---0-3-0-5/6-6---0---3-p-0-0-0--3-p-0-0-0--0--0-0-3-p-0-0-0
-0--0-0-3-p-0-0-0---0-3-0-5/6-6---0---3-p-0-0-0--3-p-0-0-0--0--0-0-3-p-0-0-0

Well, there you have it.  The song is complete but, as always with my
tabs, you'll have to listen to the CD to find all the changes, 
rythyms, rests and palm mutes.  I play in a cover band that does 
mostly current metal and alternative music so i have have a ton of 
songs figured out.  I might have what you want so just ask. Email me
at Mosfet205@aol.com OR Email me through our website WWW.ICE9ROCKS.COM
and send the mail to PHIL FRASER.  GOOD LUCK and ROCK ON!!!!!!!!!!!


Comments