Godsmack - Greed Chords & Tabs

 

Greed Chords & Tabs

Godsmack Chords & Tabs

Version: 3 Type: Bass Tab 0 ratings
1 star 2 stars 3 stars 4 stars 5 stars
comments

Greed Bass Tab

I saw some mistakes in the other bass tab for this song so I decided I'd fix it.  This 
my first bass tab and I play guitar, but if you play guitar, you can play bass, and vice versa.

Greed
As performed on "Awake"
Lyrics and music by Sully, bass by Robbie

Drop C tuning

p      pull off
/      slide up

Intro/Verse (x4 as both)       Cut off at line here for verse and chorus
F[-------------------------------------------]---------------|
C[-------------------------------------------]---------------|
G[-------------------------------------------]---------------|
C[-0-----3p0-0-0-----3p0-0-0-0---0-0-3p0-0-0-]-0-0-0-5/6-6---|
[ Tab from: http://www.guitartabs.cc/tabs/g/godsmack/greed_btab_ver_3.html ]
Chorus (x6)             After 3rd and 6th times   End chorus with this
F[---------------------]------------------------]----------------|
C[---------------------]------------------------]----------------|
G[-----5--5---3--3---6-]-3----3----3------------]----------------|
C[-0-------------------]------------------------]-0--3-3-3--1----|

Intro

Verse

Chorus (Whole thing x2)

Pre-solo                    End with this, let last note ring
F[-------------------------]------------------|
C[-------------------------]------------------|
G[-------------------------]------------------|
C[-0----------6-6-6-6---3--]-0---1-1-1---1-1--|

For the guitar solo, play the Intro as the rythym section.  Play it 4 times, only after 
the 2nd and 4th times,
   play this...
F[--------------]------------------------|
C[--------------]------------------------|
G[--------------]------------------------|
C[-1-1-1--1-1---]--5/6-6-----------------|
                        ^^^^^^^
                  ...instead of this

Then go back to the chorus.

Intro.

And your done.

Song Structure:
Intro
Verse
Chorus
Intro
Verse
Chorus
Pre-solo
Guitar solo rythym section
Chorus
Intro

Peace.
Comments