Godsmack - Forgive Me Chords & Tabs

 

Forgive Me Chords & Tabs

Godsmack Chords & Tabs

Version: 2 Type: Tab 0 ratings
1 star 2 stars 3 stars 4 stars 5 stars
comments

Forgive Me Tab

   
Band- Godsmack
Song- Forgive Me

tuning: CGCFAD

intro (slowly at 70BMP; x4):
D |-------------------0~~|
A |-----------------6~~~~|
F |----------------------|
C |--2-------------------|  
G |0h2-222--0h2-222------|
C |0h2-222--0h2-222------|
PM     ***      ***

verse(x7): 
D |-------------------0~~|
A |-----------------6~~~~|
F |----------------------|
C |--2-------------------|  
G |0h2-222--0h2-222------|
C |0h2-222--0h2-222------|
PM     ***      ***

D |----------------|
A |----------------|
F |----------------|
C |----------------|
G |02222-02222-0222|
C |02222-02222-0222|

chorus(x4):
D |------------------|
A |------------------|
F |---/8--8-7--------|
C |----x--x-x--------|
G |0--/6--6-5--003311|
C |0-----------003311|

pre-verse(x4)
D |-------------------0~~|
A |-----------------6~~~~|
F |----------------------|
C |--2-------------------|  
G |0h2-222--0h2-222------|
C |0h2-222--0h2-222------|
PM     ***      ***

verse(x7): 
D |-------------------0~~|
A |-----------------6~~~~|
F |----------------------|
C |--2-------------------|  
G |0h2-222--0h2-222------|
C |0h2-222--0h2-222------|
PM     ***      ***

D |----------------|
A |----------------|
F |----------------|
C |----------------|
G |02222-02222-0222|
C |02222-02222-0222|

chorus(x4):
D |------------------|
A |------------------|
F |---/8--8-7--------|
C |----x--x-x--------|
G |0--/6--6-5--003311|
C |0-----------003311|

   (x2)
D |------------------|
A |------------------|
F |--/10-10-9--------|
C |----x--x-x--------|
G |2--/8--8-7--225533|
C |2-----------225533|

   (x2)
D |------------------|
A |------------------|
F |---/8--8-7--------|
C |----x--x-x--------|
G |0--/6--6-5--003311|
C |0-----------003311|

  interlude(x4):
D |-------------------0~~|
A |-----------------6~~~~|
F |----------------------|
C |--2-------------------|  
G |0h2-222--0h2-222------|
C |0h2-222--0h2-222------|
PM     ***      ***

D |----------------|
A |----------------|
F |----------------|
C |----------------|
G |02222-02222-0222|
C |02222-02222-0222|
[ Tab from: http://www.guitartabs.cc/tabs/g/godsmack/forgive_me_tab_ver_2.html ]
chorus(x4):
D |------------------|
A |------------------|
F |---/8--8-7--------|
C |----x--x-x--------|
G |0--/6--6-5--003311|
C |0-----------003311|

   (x2)
D |------------------|
A |------------------|
F |--/10-10-9--------|
C |----x--x-x--------|
G |2--/8--8-7--225533|
C |2-----------225533|

   (x2)
D |------------------|
A |------------------|
F |---/8--8-7--------|
C |----x--x-x--------|
G |0--/6--6-5--003311|
C |0-----------003311|

D |--------|
A |--------|
F |--------|
C |--------|
G |0~~~~~~~|
C |0~~~~~~~|

interlude 2(slightly faster; x2):
D |-----------------|  |-------------------|
A |-----------------|  |-------------------|
F |-----------------|  |-------------------|
C |6----------------|  |6------------------|
G |6--0-0-6--0-0-3-0|  |6--0-0-6--0-0-0h3-0|
C |---0-0-6--0-0-3-0|  |---0-0-6--0-0-0h3-0|

   (x4)
D |-----------------|
A |-----------------|
F |-----------------|
C |666--------------|
G |666-0006660003300|
C |----0006660003300|
PM *****************
  
D |-----------------|  |-------------------|
A |-----------------|  |-------------------|
F |-----------------|  |-------------------|
C |6----------------|  |6------------------|
G |6--0-0-6--0-0-3-0|  |6--0-0-6--0-0-0h3-0|
C |---0-0-6--0-0-3-0|  |---0-0-6--0-0-0h3-0|

D |-----------------|  |-------------------|
A |-----------------|  |-------------------|
F |-----------------|  |-------------------|
C |6----------------|  |6------------------|
G |6--0-0-6--0-0-3-0|  |6--0-0-6--0-0-0h3-0|
C |---0-0-6--0-0-3-0|  |---0-0-6--0-0-0h3-0|

   (x4)
D |-----------------| |--------------|
A |-----------------| |--------------|
F |-----------------| |--------------|
C |666--------------| |--------------|
G |666-0006660003300| |--------------|
C |----0006660003300| |0vvvvvvvvvvvvv|
PM *****************   (dive with bar)

   v-----------------x4-------------------v
D |-----------------|  |-------------------|
A |-----------------|  |-------------------|
F |-----------------|  |-------------------|
C |6----------------|  |6------------------|
G |6--0-0-6--0-0-3-0|  |6--0-0-6--0-0-0h3-0|
C |---0-0-6--0-0-3-0|  |---0-0-6--0-0-0h3-0|

D |--------|
A |--------|
F |--------|
C |1~~~~~~~|
G |1~~~~~~~|
C |1~~~~~~~|

ENJOY!!!!!
Comments