Godsmack - Forgive Me Chords & Tabs

 

Forgive Me Chords & Tabs

Godsmack Chords & Tabs

Version: 1 Type: Bass Tab 0 ratings
1 star 2 stars 3 stars 4 stars 5 stars
comments

Forgive Me Bass Tab

   
Band- Godsmack
Song- Forgive Me

Intro - Play 11x
F|------------------------|
C|------------------------|
G|------------------------|
C|-0h2--2-2-2--0h2--2-2-2-|

Chorus - Play 4x
F|-------------------------------|
C|-------------------------------|
G|-------------------------------|
C|-0-2-2-2-2-0-2-2-2-2-0-2-2-2-2-|

Verse - Play 10x
F|------------------------|
C|------------------------|
G|------------------------|
C|-0h2--2-2-2--0h2--2-2-2-|

Chorus - Play 4x
F|-------------------------------|
C|-------------------------------|
G|-------------------------------|
C|-0-2-2-2-2-0-2-2-2-2-0-2-2-2-2-|
[ Tab from: http://www.guitartabs.cc/tabs/g/godsmack/forgive_me_btab.html ]
Verse - Play 4x
F|------------------------|
C|------------------------|
G|------------------------|
C|-0h2--2-2-2--0h2--2-2-2-|

Chorus - Play 3x               
F|-------------------------------|
C|-------------------------------|
G|-------------------------------|
C|-0-2-2-2-2-0-2-2-2-2-0-2-2-2-2-|
                               ^---- Let ring 3rd time through
Outro - Play 3x
F|------------------------------------|
C|------------------------------------|
G|6----------------6------------------|
C|--0-0-6--0-0-3-0---0-0-6--0-0-0h3-0-|

Outro - Play 3x
F|--------------------|
C|--------------------|
G|-666----------------|
C|----000666000333000-|

Outro - Play to the end.
F|------------------------------------|
C|------------------------------------|
G|6----------------6------------------|
C|--0-0-6--0-0-3-0---0-0-6--0-0-0h3-0-|
Comments