Godsmack - Faceless Chords & Tabs

 

Faceless Chords & Tabs

Godsmack Chords & Tabs

Version: 1 Type: Tab 0 ratings
1 star 2 stars 3 stars 4 stars 5 stars
comments

Faceless Tab

   
Godsmack
"Faceless"
from album Faceless
Tabbed by: Robert Walden
Tuning: CGCFAD
NOTE: I did everything but the solo...im not that good yet!
palm mute=*

Riffs:    A
--------------
--------------
--------------
----3----3---3 < there is some effect used on these 3's..
--------------
-22---22---2-- then
       B
--------------
--------------
--------------
-5-3-0-2-0-3-5
-5-3-0-2-0-3-5
-5-3-0-2-0-3-5 then
       C
--------------
--------------
--------------
-22-3-22-3-2-3
-22---22---2--
-22---22---2--
       D
--------------------------------------
--------------------------------------
--------------------------------------
-2222-3-3-2222-3-3-2222-3-3-2222-5-2-3
-2222-----2222-----2222-----2222---2--
-2222-----2222-----2222-----2222---2--
 ****     ****     ****     ****   *
[ Tab from: http://www.guitartabs.cc/tabs/g/godsmack/faceless_tab.html ]
       E
------------------
------------------
------------------
-7-----10-----3333
-7-----10-----3333
-7-----10-----3333
let the 7 and 10's ring
       F
--------------
--------------
--------------
-22-3-22-3-2-3
-22-3-22-3-2-3
-22-3-22-3-2-3
      
      G
--------------------
--------------------
------------99999999
-2----------xxxxxxxx
-2----------77777777
-2------------------
let ring

Song Order
A X5
B X1
C X3
B X1
C X3
B X1
D X5
E X1
F X2
E X1
F X2
E X1
B X1
D X5
E X1
F X2
E X1
F X2
E X1
B X1
F X2
E X1
F X2
E X1
B X1
G X1
solo..dont know it
F X2
E X1
F X2
E X1
B X1
F X2
E X1
F X2
E X1
B X1
D X2 (on the second time leave the ending with the 5-2-3 off)

Thats it but the solo...well enjoy..took me a while..aight im me at kornfellow91
on AIM for comments or leave one in correction box above..thanks
Comments