Godsmack - Enemy Chords & Tabs

 

Enemy Chords & Tabs

Godsmack Chords & Tabs

Version: 1 Type: Tab

Enemy Tab

   
Godsmack- The Ememy
Album- IV
This Song is the 3rd track off their Newest CD!
Drop D
Tabbed by FacEraser117

Guitar 1 & 2
e|---------------------------------------|
B|---------------------------------------|
G|---------------------------------------|
D|-000-000-0000000---000-000-0000000-----|  1x
A|-000-000-0000000---000-000-0000000-----|
E|-000-000-0000000---000-000-0000000-----|

Guitar 1
e|--------------------------------------|
B|--------------------------------------|
G|--------------------------------------|
D|--------------------------------------|
A|--------------------------------------|
E|-0000000000000000000000000000000------|

Guitar 2     Repeat 4x                       
e|--------------------------------------|
B|------------------------------------o-|
G|--8--77--8--77--8-7-------------------|
D|--------------------------------------|
A|--6--55--6--55--6-5-----------------o-|
E|--------------------------------------|

Both Guitars  Repeat 2x
e|-------------------------------------------------------------------------|
B|-----------------------------------------------------------------------o-|
G|-------------------------------------------------------------------------|
D|-------------------------------------------------------------------------|
A|-000-0000-00--0000000-0000-00-0-666-000-0000-00-0000000-0000-0-333333--o-|
E|-000-0000-00--0000000-0000-00-0-666-000-0000-00-0000000-0000-0-333333----|

Chours
e|-----------------------------------------------------------|
B|-----------------------------------------------------------|
G|---2--------2----------------------------------------------|
D|---0--------0----------------------------------------------|
A|-0-0--0-0-0-0-0-0-0-10-10-10-10-10-10-10--13131313131313---|
E|-0-0--0-0-0-0-0-0-0-10-10-10-10-10-10-10--13131313131313---|

e|-----------------------------------------------------------|
B|-----------------------------------------------------------|
G|---2--------2----------------------------------------------|
D|---0--------0----------------------------------------------|
A|-0-0--0-0-0-0-0-0---10-10-10-10-10-10-10--8888888----------|
E|-0-0--0-0-0-0-0-0---10-10-10-10-10-10-10--8888888----------|

e|-----------------------------------------------------------|
B|-----------------------------------------------------------|
G|---2--------2----------------------------------------------|
D|---0--------0----------------------------------------------|
A|-0-0--0-0-0-0-0-0-0-10-10-10-10-10-10-10--13131313131313---|
E|-0-0--0-0-0-0-0-0-0-10-10-10-10-10-10-10--13131313131313---|

e|-------------------------------------------|
B|-------------------------------------------|
G|---2--------2------------------------------|
D|---0--------0------------------------------|
A|-0-0--0-0-0-0-0-0--0-10-0-10-0-10-888888---|
E|-0-0--0-0-0-0-0-0--0-10-0-10-0-10-888888---|

Fill
e|-------------------------------------------------------------------------|
B|-------------------------------------------------------------------------|
G|-------------------------------------------------------------------------|
D|-------------------------------------------------------------------------|
A|-000-0000-00--0000000-0000-00-0-666--------------------------------------|
E|-000-0000-00--0000000-0000-00-0-666-000-0000-0-078-057-035-023-01--------|

Repeat 2x
e|-------------------------------------------------------------------------|
B|-----------------------------------------------------------------------o-|
G|-------------------------------------------------------------------------|
D|-------------------------------------------------------------------------|
A|-000-0000-00--0000000-0000-00-0-666-000-0000-00-0000000-0000-0-333333--o-|
E|-000-0000-00--0000000-0000-00-0-666-000-0000-00-0000000-0000-0-333333----|

Chours
e|-----------------------------------------------------------|
B|-----------------------------------------------------------|
G|---2--------2----------------------------------------------|
D|---0--------0----------------------------------------------|
A|-0-0--0-0-0-0-0-0-0-10-10-10-10-10-10-10--13131313131313---|
E|-0-0--0-0-0-0-0-0-0-10-10-10-10-10-10-10--13131313131313---|
[ Tab from: http://www.guitartabs.cc/tabs/g/godsmack/enemy_tab.html ]
e|-----------------------------------------------------------|
B|-----------------------------------------------------------|
G|---2--------2----------------------------------------------|
D|---0--------0----------------------------------------------|
A|-0-0--0-0-0-0-0-0---10-10-10-10-10-10-10--8888888----------|
E|-0-0--0-0-0-0-0-0---10-10-10-10-10-10-10--8888888----------|

e|-----------------------------------------------------------|
B|-----------------------------------------------------------|
G|---2--------2----------------------------------------------|
D|---0--------0----------------------------------------------|
A|-0-0--0-0-0-0-0-0-0-10-10-10-10-10-10-10--13131313131313---|
E|-0-0--0-0-0-0-0-0-0-10-10-10-10-10-10-10--13131313131313---|

e|-------------------------------------------|
B|-------------------------------------------|
G|---2--------2------------------------------|
D|---0--------0------------------------------|
A|-0-0--0-0-0-0-0-0--0-10-0-10-0-10-888888---|
E|-0-0--0-0-0-0-0-0--0-10-0-10-0-10-888888---|

e|---------------------------------------|
B|---------------------------------------|
G|---------------------------------------|
D|-000-000-0000000---000-000-0000000-----|  1x
A|-000-000-0000000---000-000-0000000-----|
E|-000-000-0000000---000-000-0000000-----|

Guitar 1
e|--------------------------------------|
B|--------------------------------------|
G|--------------------------------------|
D|--------------------------------------|
A|--------------------------------------|
E|-0000000000000000000000000000000------|

Guitar 2     Repeat 4x                       
e|--------------------------------------|
B|------------------------------------o-|
G|--8--77--8--77--8-7-------------------|
D|--------------------------------------|
A|--6--55--6--55--6-5-----------------o-|
E|--------------------------------------|

Repeat 4x
e|-----------------------------------------------------------|
B|---------------------------------------------------------o-|
G|-----------------------------------------------------------|
D|-----------------------------------------------------------|
A|---------------------------------------------------------o-|
E|-13-0-0-0-13-0-0-0-18-17-17-13-0-0-0-13-0-0-0-10-10h12-----|

Repeat 4x
e|-------------------------------------------------|
B|-------------------------------------------------|
G|-------------------------------------------------|
D|---------------------------------------------3---|
A|---------------------------------------------3---|
E|-000001p0-0001p0-01p0-00000001p0-0001p0-01p0-3---|


Repeat 4x
e|-----------------------------------------------------------|
B|---------------------------------------------------------o-|
G|-----------------------------------------------------------|
D|-----------------------------------------------------------|
A|---------------------------------------------------------o-|
E|-13-0-0-0-13-0-0-0-18-17-17-13-0-0-0-13-0-0-0-10-10h12-----|

Chours
e|-----------------------------------------------------------|
B|-----------------------------------------------------------|
G|---2--------2----------------------------------------------|
D|---0--------0----------------------------------------------|
A|-0-0--0-0-0-0-0-0-0-10-10-10-10-10-10-10--13131313131313---|
E|-0-0--0-0-0-0-0-0-0-10-10-10-10-10-10-10--13131313131313---|

e|-----------------------------------------------------------|
B|-----------------------------------------------------------|
G|---2--------2----------------------------------------------|
D|---0--------0----------------------------------------------|
A|-0-0--0-0-0-0-0-0---10-10-10-10-10-10-10--8888888----------|
E|-0-0--0-0-0-0-0-0---10-10-10-10-10-10-10--8888888----------|

e|-----------------------------------------------------------|
B|-----------------------------------------------------------|
G|---2--------2----------------------------------------------|
D|---0--------0----------------------------------------------|
A|-0-0--0-0-0-0-0-0-0-10-10-10-10-10-10-10--13131313131313---|
E|-0-0--0-0-0-0-0-0-0-10-10-10-10-10-10-10--13131313131313---|

e|-------------------------------------------|
B|-------------------------------------------|
G|---2--------2------------------------------|
D|---0--------0------------------------------|
A|-0-0--0-0-0-0-0-0--0-10-0-10-0-10-888888---|
E|-0-0--0-0-0-0-0-0--0-10-0-10-0-10-888888---|

e|---------------------------------------|
B|---------------------------------------|
G|---------------------------------------|
D|-000-000-0000000---000-000-0000000-----|  2x
A|-000-000-0000000---000-000-0000000-----|
E|-000-000-0000000---000-000-0000000-----|

| /  slide up
| \  slide down
| h  hammer-on
| p  pull-off
| ~  vibrato
| +  harmonic
| x  Mute note

Enjoy!!!!!