Godsmack - Bad Religion Chords & Tabs

 

Bad Religion Chords & Tabs

Godsmack Chords & Tabs

Version: 5 Type: Tab 0 ratings
1 star 2 stars 3 stars 4 stars 5 stars
comments

Bad Religion Tab

Bad Religeon tab by Godsmack

RJMan

Drop D tuning, lots of distortion
This is a fairly easy song that some people still can't tab right. 
You may have to listen carefully to know that this tab is correct.

Intro:

e----------------|
B----------------|
G----------------|
D-0-0-00-0-00----|
A-0-0-00-0-00----|
E-0-0-00-0-00----|  Get Back!

Verse: X6, let ring on sixth

e-------------------------------|
B-------------------------------|
G-------------------------------|
D-0-0-00-0-0-00-0-0-00-0-0-00---|
A-0-0-00-0-0-00-0-0-00-0-0-00---|
E-0-0-00-0-0-00-0-0-00-0-0-00---|

Chorus: I know you may not think this is what it sounds like, but if
you listen carefully you will hear the extra notes being played. I only 
call them extra notes because if you compare this with other tabs, you will 
discover that some people are tone deaf and did not put them in.

e----------------------------------------------------------------------|
B----------------------------------------------------------------------|
G-7/5-5-5-5-5-7/5-5-5-5-5-7/5-5-5-10/7-7-7-7-7-10/7-7-7-7-7-10/7-7-7---|
D-x-x-x-x-x-x-x-x-x-x-x-x-x-x-x-x--x-x-x-x-x-x--x-x-x-x-x-x--x-x-x-x---|
A-5/3-3-3-3-3-5/3-3-3-3-3-5/3-3-3--8/5-5-5-5-5--8/5-5-5-5-5--8/5-5-5---|
E----------------------------------------------------------------------|

e-------------------|
B-------------------|
G-------------------|
D-0-0-00-0-00-------|
A-0-0-00-0-00-------|
E-0-0-00-0-00-------|

Verse x5, let ring on fifth

Chorus x2
[ Tab from: http://www.guitartabs.cc/tabs/g/godsmack/bad_religion_tab_ver_5.html ]
3/4 of the way through second chorus, play this:

e---------------------------------------------------|
B---------------------------------------------------|
G---------------------------------------------------|
D-7-7/8/7-7-7-7/8-7-7-7--7-7-7--5-5-5--3-3-3--2-2-0-|
A-7-7/8-7-7-7-7/8-7-7-7--7-7-7--5-5-5--3-3-3--2-2-0-|
E-7-7/8-7-7-7-7/8-7-7-7--7-7-7--5-5-5--3-3-3--2-2-0-|

Immediately, turn on the phaser and play this:

e----------------------------------------------|
B----------------------------------------------|
G----------------------------------------------|
D----------------------------------------------|
A-5-------3-------------2-------1--------------|
E---0-0-0---0-0-2-0-2-3---0-0-0---0-0-2-0-2-3--|

Play it 8 times, and on the 4th and 8th time, play this slightly altered
version:

e---------------------------------------------|
B---------------------------------------------|
G---------------------------------------------|
D---------------------------------------------|
A-5-------3-------------2-------3-------------|
E---0-0-0---0-0-2-0-2-3---0-0-0---0-0-2-0-2-3-|

Verse x4 (let ring on 4th)
after 2nd and 3rd verse riffs:

Mute with right hand palm and left hand palm and make chunky noises:

e-------------------|
B-------------------|
G-------------------|
D-x-x-x-x-x-x-x-----|
A-x-x-x-x-x-x-x-----|
E-x-x-x-x-x-x-x-----|

Outro:
e------------------------------|
B------------------------------|
G------------------------------|
D-0-0-00-0-0-00-0-0-00-0-0-00--|
A-0-0-00-0-0-00-0-0-00-0-0-00--|
E-0-0-00-0-0-00-0-0-00-0-0-00--|
Comments