Godsmack - Bad Religion Chords & Tabs

 

Bad Religion Chords & Tabs

Godsmack Chords & Tabs

Version: 1 Type: Tab 1 rating
1 star 2 stars 3 stars 4 stars 5 stars
comments

Bad Religion Tab

   
Dropped D Tuning 

 Intro 
 E :| --------------------- | 
 B :| --------------------- | 
 G :| --------------------- | 
 D :| 0-x-0-x-00-x-0-x-00-- | 
 A :| 0-x-0-x-00-x-0-x-00-- | 
 D :| 0-x-0-x-00-x-0-x-00-- | 

 Verse (x6) 
 E :| ---------------------------------------------------- | ------ | 
 B :| ---------------------------------------------------- | ------ | 
 G :| ---------------------------------------------------- | ------ | 
 D :| 0-x-0-x-00-x-0-x-0-x-00-x-0-x-0-x-00-x-0-x-0-x-00-x- | -(0)-- | 
 A :| 0-x-0-x-00-x-0-x-0-x-00-x-0-x-0-x-00-x-0-x-0-x-00-x- | -(0)-- | (Let
 ring 6th time) 
 D :| 0-x-0-x-00-x-0-x-0-x-00-x-0-x-0-x-00-x-0-x-0-x-00-x- | -(0)-- | 

 x = mute strings with left hand 

 Chorus (\"It\'s a bad religion....\") 
 E :|
 ----------------------------------------------------------------------- |

 B :|
 ----------------------------------------------------------------------- |

 G :|
 --7\\5-5-5-5-5-5-5-5-5-5-5-5-5-5-5----10\\7-7-7-7-7-7-7-7-7-7-7-7-7-7-7-- |

 D :|
 --x-x-x-x-x-x-x-x-x-x-x-x-x-x-x-x-----x-x-x-x-x-x-x-x-x-x-x-x-x-x-x-x-- |
 x3 
 A :|
 --5\\3-3-3-3-3-3-3-3-3-3-3-3-3-3-3-----8\\5-5-5-5-5-5-5-5-5-5-5-5-5-5-5-- |

 D :|
 ----------------------------------------------------------------------- |


 x = mute string 
 \\ = Slide Down 

 End Chorus Riff | (\"And I can\'t take it any more....\") 
 E :| ------------------------------------------------- | 
 B :| ------------------------------------------------- | 
 G :| --7\\5-5-5-5-5-5-5-5-5-5-------------------------- | 
 D :| --x-x-x-x-x-x-x-x-x-x-x-----0-x-0-x-00-x-0-x-00-- | 
 A :| --5\\3-3-3-3-3-3-3-3-3-3-----0-x-0-x-00-x-0-x-00-- | 
 D :| ----------------------------0-x-0-x-00-x-0-x-00-- | 

 Back to Verse (x6) 
 Then Second Chorus 
[ Tab from: http://www.guitartabs.cc/tabs/g/godsmack/bad_religion_tab.html ]
 End of Second Chorus | Post Chorus (\"Yea...\") 
 E
 :|--------------------------------------------------------------------------|

 B
 :|--------------------------------------------------------------------------|

 G
 :|--7\\5-5-5-5-5-5-5-5-5-5---------------------------------------------------|

 D
 :|--x-x-x-x-x-x-x-x-x-x-x----7\\0---7--8-7--7-7--8-7--7-7--7---5---3---2-----|

 A
 :|--5\\3-3-3-3-3-3-3-3-3-3----7\\0---7--8-7--7-7--8-7--7-7--7---5---3---2-----|

 D
 :|---------------------------7\\0---7--8-7--7-7--8-7--7-7--7---5---3---2-----|


 Riff 2 x2 
 E :| ------------------------------------------------------------- | 
 B :| ------------------------------------------------------------- | 
 G :| --7--------5------------------5---------4-------------------- | x3 
 D :| --x--------x------------------x---------x-------------------- | 
 A :| --5--------3------------------3---------2-------------------- | 
 D :| -----0-0-0----0-0--3p1--3/5------0-0-0------0-0--3p1--3/5---- | 
 Substitute the above by the below the 4th time. 

 | ------------------------------------- | 
 | ------------------------------------- | 
 | ---5---------7----------------------- | 
 | ---x---------x----------------------- | 
 | ---3---------5----------------------- | 
 | ------0-0-0------0-0--3p1--3/5------- | 

 Back to Verse Riff (x1) 

 Then 

 Variation Verse (x2) 
 E :| ------------------------------------------------------------ | 
 B :| ------------------------------------------------------------ | 
 G :| ------------------------------------------------------------ | 
 D :| 0-x-0-x-00-x-0-x-0-x-00-x-0-x-0-x-00-x-0---0-1-0-2-0-1-0---- | 
 A :| 0-x-0-x-00-x-0-x-0-x-00-x-0-x-0-x-00-x-0---0-1-0-2-0-1-0---- | 
 D :| 0-x-0-x-00-x-0-x-0-x-00-x-0-x-0-x-00-x-0---0-1-0-2-0-1-0---- | 
 Palm Muted |-------------| 

 Then Verse Riff (x2)
Comments