Godsmack - Bad Religion Chords & Tabs

 

Bad Religion Chords & Tabs

Godsmack Chords & Tabs

Version: 2 Type: Bass Tab 0 ratings
1 star 2 stars 3 stars 4 stars 5 stars
comments

Bad Religion Bass Tab

   
Godsmack-Bad Religion
Tab by Dan Scott

Drop D Tuning (D,A,D,G)

intro

G:|----------------|
D:|----------------|
A:|----------------|
D:|-0-0-00-0-00----|

verse (x6):
   
G:|------------------------------|-----------|
D:|-----------------------------*|-----------|
A:|-----------------------------*|-----------|
D:|0-0-00-0-0-00-0-0-00-0-0-00---|(0)--------|
                                  last time let ring
1st Chorus:
                                  
G:|------------------|-----------------|
D:|------------------|-----------------|
A:|-5333335333335333-|8555558555558555-|
D:|------------------|-----------------|


                                    
G:|------------------|-----------------|
D:|------------------|-----------------|
A:|-5333335333335333-|-----------------|
D:|------------------|-0-0-00-0-00-----|

Verse (5x)
[ Tab from: http://www.guitartabs.cc/tabs/g/godsmack/bad_religion_btab_ver_2.html ]
2nd Chorus:                              3x      
G:|------------------|-----------------------|
D:|------------------|-----------------------|
A:|-5333335333335333-|-8555558555558555------|
D:|------------------|-----------------------|


                                    4th time
G:|------------------|-------------------------|
D:|------------------|-------------------------|
A:|-5333335333335333-|-7\0-787-7-787-7--5-3-2--|
D:|------------------|-------------------------|

Bridge (2x)
                                     3x (1st time without Bass)
G:|-----------------------|------------------------|
D:|-----------------------|-----------------------*|
A:|-5-------3-------------|-3-------2-------------*|
D:|---0-0-0---0-0-3-1-3-5-|---0-0-0---0-0-3-1-3-5--|



                                     4th time          
G:|-----------------------|------------------------|
D:|-----------------------|-----------------------*|
A:|-5-------3-------------|-3-------5-------------*|
D:|---0-0-0---0-0-3-1-3-5-|---0-0-0---0-0-3-1-3-5--|

Verse (5X)
Comments