Godsmack - Bad Magick Chords & Tabs

 

Bad Magick Chords & Tabs

Godsmack Chords & Tabs

Version: 3 Type: Tab 0 ratings
1 star 2 stars 3 stars 4 stars 5 stars
comments

Bad Magick Tab

   
Godsmack
bad magick

This is the whole song EXCEPT for the part where he keeps saying
"get back, back on track"  

INTRO:  

E|-------------------- 
B|-------------------- 
G|----------7777/8888- 
D|-5-8-5-5/-XXXX/XXXX- Repeat 4 times. 
A|-3-6-3-3/-5555/6666- 
D|-------------------- 

VERSE: 

E|------------------- 
B|------------------- 
G|------------------- 
D|-3-6-3--6-3--3-6-3- Repeat 4 times. 
A|-3-6-3--6-3--3-6-3- 
D|-3-6-3--6-3--3-6-3- 

Does it feel so bad when your takin' a drag  
and your lookin' at the world through tired eyes.  

CHORUS: (Same as intro) 
[ Tab from: http://www.guitartabs.cc/tabs/g/godsmack/bad_magick_tab_ver_3.html ]
E|-------------------- 
B|-------------------- 
G|----------7777/8888- 
D|-5-8-5-5/-XXXX/XXXX-        Repeat 4 times. 
A|-3-6-3-3/-5555/6666- 
D|-------------------- 

"If it feels so bad... Bad Magick playin' off of me 
If it feels so bad..." (thats how that goes.) 


INTERLUDE:  

E|------------------ 
B|------------------ 
G|------------------ 
D|-0-0-0---0--------  
A|-0-0-0---0-------- 
D|-0-0-0---0--------          

VERSE:  

E(1)------------------- 
B(2)------------------- 
G(3)------------------- 
D(4)-3-6-3--6-3--3-6-3-   Repeat 4 times. 
A(5)-3-6-3--6-3--3-6-3- 
D(6)-3-6-3--6-3--3-6-3- 

Can't remember the lyrics...

 theirs that weird "get back on track. get back on track..." thing and i couldnt
figuare that out.  HAVE FUN AND ENJOY!!!!  :)
Comments