Godsmack - Awake Chords & Tabs

 

Awake Chords & Tabs

Godsmack Chords & Tabs

Version: 5 Type: Tab 0 ratings
1 star 2 stars 3 stars 4 stars 5 stars
comments

Awake Tab

   
Tuning: c g c f a d
email:forgravy@hotmail.com

Key:
 (t)= tremelo picking
  ^ = bend up, some thing like this 12^1
  > = bend down
  ~ = vibrato-wiggle the string
  p = pull off
  h = hammer on
  * = harmonics
  pm= palm muting
  / = slide up
  \ = slide down
  x = left hand palm mute


Intro:x2
guitar:1 (distortion)

-----------------------------------------
-3----3----3--3--------------------------
-2----2----2--2----3---------------------
-0----0----0--0----3----1---1------------
-0----0----0--0----1----1---1------------
-0----0----0--0---------1---1------------


Intro:2
Guitar:2 (distortion and wah peddle
you play it at the same time as intro 1
im not to sure how many times

---------------------
---------------------
-7----3----8---------
-x----x----x---------
-5----1----6---------
---------------------
[ Tab from: http://www.guitartabs.cc/tabs/g/godsmack/awake_tab_ver_5.html ]
 guitars: 1 and 2 
                      x3
----------------------
----------------------
----------------------
--0---0---0-0---------
--0---0---0-0---------
--0---0---0-0---------

then play
----------------------
----------------------
----------------------
-0----0---0----3^-----
-0----0---0-----------
-0----0---0-----------

Guitars 1 and 2:
----------------------------------------------------------------
----------------------------------------------------------------
-------------7-7-7-8-8-8-8----------------7-7-7-8-8-8-8---------
-0--0--0-0---x-x-x-x-x-x-x----0--0--0-0---x-x-x-x-x-x-x---------
-0--0--0-0---5-5-5-6-6-6-6----0--0--0-0---5-5-5-6-6-6-6---------
-0--0--0-0--------------------0--0--0-0-------------------------

-----------------------------------------------------
-----------------------------------------------------
-----------------------------------------------------
--0---0---0---0---0----0-----5-------6---------------
--0---0---0---0---0----0-----3---6---4---------------
--0---0---0---0---0----0---------4-------------------

then play:
Intro:1 x2
Intro:2 x2
Everything else
then repeat intro:1 x2
and Intro:2 x2

I'm sorry but that's all i got for right now if u like it then email me.
Comments