Godsmack - Awake Chords & Tabs

 

Awake Chords & Tabs

Godsmack Chords & Tabs

Version: 1 Type: Tab 2 ratings
1 star 2 stars 3 stars 4 stars 5 stars
comments

Awake Tab

   
OK -- I get alot of info off of this web site so now i guess its time
I give something back.  It's not often when i sit down to figure out
a song but i know its a pain to do, so Here it is -- To the best of
my knowledge this is 100% correct.  This song is just as easy as any 
other Godsmack tune (Except Bad Religion -- that one is REALLY easy).

Drop D tuning, tuned down one whole step
low to high C  G  C  F  A  D
INTRO :
Guitar one
---------------------------------------------------------------------
---2--------2---------2---2--2---------------------------------------
---3--------3---------3---3--3----3----------------------------------
---0--------0---------0---0--0----1-------1--------1--1--1--0--------
---0--------0---------0---0--0----1-------1--------1--1--1--0--------
---0--------0---------0---0--0------------1--------1--1--1--0-------- 
this repeats a couple of times and guitar 2 comes in with this :
---------------------------------------------------------------------
---------------------------------------------------------------------
--7------7--7--7--7-----7--7--7--7--7--7-----3----3--3--3----8-------
--*------*--*--*--*-----*--*--*--*--*--*-----*----*--*--*----*-------
--5------5--5--5--5-----5--5--5--5--5--5-----1----1--1--1----6-------
---------------------------------------------------------------------
_____________________________________________________________________

---------------------------------------------------------------------
---------------------------------------------------------------------
--8--8--8--8--8--8--8------7----7--7--7--7-------7--7--7--7--7--7----
--*--*--*--*--*--*--*------*----*--*--*--*-------*--*--*--*--*--*----
--6--6--6--6--6--6--6------5----5--5--5--5-------5--5--5--5--5--5----
---------------------------------------------------------------------
_____________________________________________________________________
[ Tab from: http://www.guitartabs.cc/tabs/g/godsmack/awake_tab.html ]
---------------------------------------------------------------------
---------------------------------------------------------------------
--3-----3--3--3--3--8----8--8--8-------------------------------------
--*-----*--*--*--*--*----*--*--*-------------------------------------
--1-----1--1--1--1--6----6--6--6-------------------------------------
------------------------------------12\sl----------------------------
Both guitars:
---------------------------------------------------------------------
---------------------------------------------------------------------
---------------------------------------------------------------------
----------------------}-----------------------}----------------------}
---------------------------------------------------------------------
---0------0----0--0--------0------0----0--0---------0------0----0--0-
_____________________________________________________________________
                             play this riff 3X (riff #1)
----------------------------|------------------------------------------
----------------------------|------------------------------------------
-------------5--------------|----------------------7--7--7--8--8--8--8-
-------------5--------------|----------------------*--*--*--*--*--*--*-
----------------------------|----0----0----0--0----5--5--5--6--6--6--6-
--0---0---0----------1/sl---|----0----0----0--0------------------------
______________________________________________________________________
then go to this 1X
----------------------------------------------------------------------
----------------------------------------------------------------------
------------------7--7--7--10--10--10---------------------------------
------------------*--*--*--*---*---*----------------------------------
--0---0---0--0----5--5--5--8---8---8----------------------------------
--0---0---0--0--------------------------------------------------------
Then repeat riff #1 3X and end it on this chord
   F(b5)
-----------
-----------
------10---
------9----
------8----
-----------
throughout the verses it just hits on open strings.  You'll have to 
listen to the song to hear the rythyms and the rests.
----------
----------
----------
----------
----0-----
----0-----
THe chorus of the song is the same as the intro so basically 
everything up to this point repeats 2X.
then the song goes into this :
Play 4X
-------------------------------------------------------------------
-------------------------------------------------------------------
-------------------------------------------------------------------
-------------------------------------------------------------------
-------------------------------------------------------------------
--0--0--0--0------0--0--0--0--0-----0--0---------------------------
THen go to this
play 4X
--------------------------------------------
--------------------------------------------
--------------------------------------------
--------------------------------------------
--0--0--0--0------0--0--0--0--0-----0--0----
--0--0--0--0------0--0--0--0--0-----0--0----
_____________________________________________________________________
"tearing it back, i'm failin' me. . . . ."
---------------------------------------------------------------------
---------------------------------------------------------------------
---------------------------------------------------------------------
--1------1-------1-----1--1------0-----------------------------------
--1------1-------1-----1--1------0-----------------------------------
--1------1-------1-----1--1------0-----------------------------------
those are the riffs for the bridge, again, you'll have to listen to it 
to figure out where they go.

At the end of the bridge, right before the solo they thump on this:
-------------------------
-------------------------
-------------------------
-------------------------
----------5--------------
----------5--------------

And now the moment you've all been waiting for. . . . 
SOLO:
w/Wah & Trem picking
---------------------------------------------------------------------
---------------------------------------------------------------------
----7------------5-----------8----------5---------7------------------
------------------------------------------------------------6--------
---------------------------------------------------------------------
---------------------------------------------------------------------
_____________________________________________________________________

----------------------------------------------------------------10---
-----------------------------------------------------------------9---
----7------------5-----------8----------5----------7-----------------
---------------------------------------------------------------------
---------------------------------------------------------------------
---------------------------------------------------------------------
_____________________________________________________________________
the main solo
---------------------------------------------------------------------
-(bend full)--------------------------(bend half)----(bend full)-----
--12---------10--12~~~~~~~~~~~--------12-------------12--------------
---------------------------------------------------------------------
---------------------------------------------------------------------
---------------------------------------------------------------------
_____________________________________________________________________

-----------------------------------------------------10--------------
--10---13---10--------10----------10---13---10-----------------------
-----------------12------------------------------13-------13---12----
---------------------------------------------------------------------
---------------------------------------------------------------------
---------------------------------------------------------------------
_____________________________________________________________________

---------------------------------------------------------------------
----------------------(bend full)-----10-----------------------------
--13--12--10----------12-------------------13---12---10------10------
--------------12-----------------------------------------12----------
---------------------------------------------------------------------
---------------------------------------------------------------------
_____________________________________________________________________

---------------------------13---------------13-----------------------
--(bend full)---------------(bend full)------(bend 1 1/2)------------
--12--------------10-------------------------------------------------
---------------------------------------------------------------------
---------------------------------------------------------------------
---------------------------------------------------------------------
_____________________________________________________________________

--10-----------------------------------------------------------------
-------13------10----------10-----------------------------(bend half)
---------------------13---------13---12---10---------10---12---------
-----------------------------------------------12--------------------
---------------------------------------------------------------------
---------------------------------------------------------------------
---------------------------------------------------------------------
_____________________________________________________________________

---------------10----------10----------13-----------15---------------
---------/13-------13--12------13/-15------15--13----(bend full)-----
--10-----------------------------------------------------------------
---------------------------------------------------------------------
---------------------------------------------------------------------
---------------------------------------------------------------------
_____________________________________________________________________

--15----------13-----------------------------------------------------
--(bend full)-------15-----------------------------------------------
---------------------------------------------------------------------
---------------------------------------------------------------------
---------------------------------------------------------------------
---------------------------------------------------------------------
Under the solo the other guitar alternates between these two chords
--------------------------
--------------------------
--------------------------
---1--------------0-------
---1--------------0-------
---1--------------0-------

THis is the whole song complete.  If there are any screw ups let me 
know at Mosfet205@aol.com.  I have alot of other songs too i'm just 
not sure what else to put out, so, if you want anything let me know
maybe i have it.
Comments