Godless Wicked Creeps - Boy Scout Chords & Tabs

 

Boy Scout Chords & Tabs

Godless Wicked Creeps Chords & Tabs

Version: 1 Type: Tab 0 ratings
1 star 2 stars 3 stars 4 stars 5 stars
comments

Boy Scout Tab

   
Boy Scout - Godless Wicked Creeps
Hellcoholic (1995) - Crazy Love Records

Tabbed by Tom Gray 

This is a quick tabs I did for an kick-ass psycho love song. Not sure it's 100% correct, but ... 95%? E-mail me flames/corrections.
--------------------------------------------------------------------------
Symbols:
  /- Slide up
  \- Slide down
  p- Pull-off
  h- Hammer-on
  ~- vibrato
--------------------------------------------------------------------------

I think there is also a distored guitar playing the rhythm
chords low in the mix. Just play the chords above the tablature.


Intro / Verse Figure:
   F   Dmi   A      Bb        C
e|--------5------|--------5------|--------5-------|------6--------8---|
B|----6-----6--6-|----6-----6--6-|----5------5--5-|--------6--------8-|
G|-5---5-----5---|-7----7-----7--|-6----6-----6---|-6/7-------7/9-----|
D|---------------|---------------|----------------|-------------------|
A|---------------|---------------|----------------|-------------------|
E|---------------|---------------|----------------|-------------------|


(play twice)


Chorus:
--------------------------------------------------------------------------
   Dmi  A
e|-5------------|-5-------------|        (Strum these, and let ring
B|-6------------|-5-------------|  for 1 whole measure - alternate)
G|-7------------|-6-------------|
D|--------------|---------------|
A|--------------|---------------|
E|--------------|---------------|

  A
e|-------------|
B|-------------|
G|-------------|
D|-7\----------|
A|-7\----------|
E|-5\----------|

(Play intro / verse figure twice)


(Play chorus)


Solo (2 gtrs. arr. for 1):
--------------------------------------------------------------------------
There seems to be a second guiat low in the mix (in addition to
the rhythm guitar), so I've made the best facsimilie of the solo.
[ Tab from: http://www.guitartabs.cc/tabs/g/godless_wicked_creeps/boy_scout_tab.html ]
e|----------------------------|--------------------------|
B|-/13--13-13-13-13---13--11--|-10-10-10h11-10-10h11-10\-|
G|----------------------------|--------------------------|
D|----------------------------|--------------------------|
A|----------------------------|--------------------------|
E|----------------------------|--------------------------|

e|----------------------------|--------------------13----15--13------|
B|-5--5-5-5-5-5--5/-11--11-11-|-11/13-13-13-13~-13----13---------13\-|
G|----------------------------|--------------------------------------|
D|----------------------------|--------------------------------------|
A|----------------------------|--------------------------------------|
E|----------------------------|--------------------------------------|

e|-----------------------|---------------6--------8---|
B|-10--10-10-11-10~(10)\-|---5---6-5-------6--------8-|
G|-----------------------|-6---6-----6/7------7/9-----|
D|-----------------------|----------------------------|
A|-----------------------|----------------------------|
E|-----------------------|----------------------------|

e|--------6-5---------------|--------------------------------|
B|---6--------6---5---6--5--|-----10----11-10------5---6--5\-|
G|-7---7--------6---6-----6-|-/11----11-------11-6---6-------|
D|--------------------------|--------------------------------|
A|--------------------------|--------------------------------|
E|--------------------------|--------------------------------|

e|--------6-5---------------|--------------------------------------|
B|---6--------6---5---6-5---|----10----10-10--10-10h11--10-8-8-10--|
G|-7---7--------6---6-----6-|-11----11-----------------------------|
D|--------------------------|--------------------------------------|
A|--------------------------|--------------------------------------|
E|--------------------------|--------------------------------------|

(Play intro / verse figure twice)


(Play chorus)

For the outro, just noodle around with the intro / verse chords
(F, Dmi, A, Bb, C)

GWC fuckin rock (but you knew that.)
Comments