Godhead - Inside You Chords & Tabs

 

Inside You Chords & Tabs

Godhead Chords & Tabs

Version: 2 Type: Bass Tab 0 ratings
1 star 2 stars 3 stars 4 stars 5 stars
comments

Inside You Bass Tab

gODHEAD
Inside You (James Miller / Scott Putesky)
2000 Years of Human Error



Verse
g |----0----2---------------|   "I'm not reaching you"...... Repeat
d |---------------3----2----|
a |-------------------------|
e |-------------------------|

"I can see myself inside of you...." (chorus)
[ Tab from: http://www.guitartabs.cc/tabs/g/godhead/inside_you_btab_ver_2.html ]
g |----2--------------------|
d |---------4----5----2-----|
a |-------------------------|
e |-------------------------|

"whats beneath your flesh"....   repeat Verse

"look inside my head"......

g |-----------------------------5----4----|
d |----2----0-----------------------------|
a |---------------------------------------|
e |---------------------------------------|

Tabbed by Kelly Keel
gODHEAD__@hotmail.com
Comments