Godhead - I Sell Society Chords & Tabs

 

I Sell Society Chords & Tabs

Godhead Chords & Tabs

Version: 1 Type: Tab 0 ratings
1 star 2 stars 3 stars 4 stars 5 stars
comments

I Sell Society Tab

I Sell Society by Godhead
Guitarist: Jason Miller + Mike Miller
Album: 2000 Years Of Human Error
Dif.: 4
Tabbed by Twiggy5

Fill 1
G|--12^----| full step
Fade in and bend slowly down towards b string and hit b string w/ bended g string… 
he he, bended g string

Verse (clean) (Just after "So get in line..")
G|----------------10-10-10--10-|
D|--9--8--8--7--7-X---X--X--X--|
A|--7--7--7--7--7-7---7--7--7--|

Chorus (w/ dist.) ("I sell society…")
G|-----9-----5-----------8------|
D|-----9-----5-----9-----8------|
A|-----7-----3-----9-----6------|
E|-----------------7------------|

Fill 2 (w/ dist.)
G|--------------------9---------|
D|--------------------9---------|
A|--------------------7\\\\\\\\-|

End
G|--9---------------------------------------|
D|--9----------------------X\\\\\-----------|
A|--7----------------------X\\\\\-----------| feedback
[ Tab from: http://www.guitartabs.cc/tabs/g/godhead/i_sell_society_tab.html ]
Effects
Bass N Drums
Fill
Bass N Drums
Verse
Chorus
Verse (Gtr. 1)/Fill 1 (Gtr. 2)
Verse ("Your world has spikes….")
Drum Roll
Chorus
Fill 1
Keyboard + Piano Shit
Chorus
End

There ya go. I’m not quite sure about fill 1 but it sounds good. If you have any 
comments, corrections or suggestions email me at ToXic345x@yahoo.ca
===========Band:Godhead
Title:I sell society
Album:2000 years of human error

normal tunning

verse

e|--------------------------|
b|--------------------------|
g|-------------10-10-10-10--|
d|-9-8-8-7-7-7-x--x--x--x---|
a|-7-7-7-7-7-7-7--7--7--7---|
E|--------------------------|


chorus

here are the chords listen to song to hear how many times to play each one

e|-------------|
b|-------------|
g|-9--5-----8--|
d|-9--5--9--8--|
a|-7--3--9--6--|
E|-------7-----|

well thats all i got for now thanx 
                                                       
jeremy
====
Comments