Godhead - I Hate Today Chords & Tabs

 

I Hate Today Chords & Tabs

Godhead Chords & Tabs

Version: 1 Type: Bass Tab

I Hate Today Bass Tab

Band- Godhead
Song- I hate Today

/=slide
*=let ring
This is my first tab,  I tabbed it ´cause I searched everywhere but I didn´t find it,  
the verse the bass is played together with keyboard noise, but it´s the same pattern, 
PLEASE IF YOU LIKE THE TAB DONT FORGET TO RATE IT
Intro/verse:

(x5 times) Slowly he settles down……..
----------------------------------------------------------|
----------------------------------------------------------|
----------------------------------------------------------|
-7----------3----------2----7----------3----------2-5-----|

Chorus: I´m a product of your hate………
------------------------------------------------------------------------------------|
------------------------------------------------------------------------------------|
------------2---------------------2--------------------------------------------2----|
-3---------------------3---------------------3----------2----------3----------------|
[ Tab from: http://www.guitartabs.cc/tabs/g/godhead/i_hate_today_btab.html ]
Verse (x2)
Play this after the second verse, I´ll call it pre chorus, but just for the second verse
Pre-chorus 2 :
The days have taken years……..
(x2)
---------------------------------------|
---------------------------------------|
-----------------------------------2---|
-3----------2----------3---------------|

Chorus (x1)
Transition
Right after  I Hate today…..
:
------------------------------|
------------------------------|
------------------------------|
-----------------3/14*-14/9---|

Outro :
---------------------------------------------------------------------------------------|
---------------------------------------------------------------------------------------|
----------------------2222222222222----------------------2222222222222-----------------|
-33333333333330-------------------033333333333330--------------------0-----------------|

---------------------------------------------------------------------------------------|
---------------------------------------------------------------------------------------|
----------------------------------------------------------------2222222222222----------|
-333333333333332222222222222233333333333330--------------------0-----------------------|