Godhead - Fucked Up Chords & Tabs

 

Fucked Up Chords & Tabs

Godhead Chords & Tabs

Version: 2 Type: Tab 0 ratings
1 star 2 stars 3 stars 4 stars 5 stars
comments

Fucked Up Tab

   
-------------------------------------------------------------------------
                        FUCKED UP - Godhead
-------------------------------------------------------------------------

Tabbed by :   pulse
Email :       glopinou@hotmail.com

Tunning : E A D G B E


Verse :
    X 4          X 3
E----------- ----------- --------0---------|
B----------- ----------- ------------------|
G----------- -----7----- ------7-----7-----|
D----7-6-7-- ---5---5--- ----5---------5---|
A--5-------- ----------- ----------------5-|
E----------- -6--------- --6-------6-------|


Break1 :
E--------------------------------------------------------------------|
B--------------------9-9-9-9-/6-6-/3-/1---3-3-/6---6-/8--------------|
G--5-/7~----5-/7~----------------------------------------------------|
D--------------------------------------------------------------------|
A-(10-12-7-8)--------------------------------------------------------|
E--------------------------------------------------------------------|

[ Tab from: http://www.guitartabs.cc/tabs/g/godhead/fucked_up_tab_ver_2.html ]
Break2 :
E--------------------------------------------------------------------|
B-------------------9-9-9-9-/6-6-/3-/1---3-3-/6~--6-/8~--------------|
G------------5-/7-----------------------------------------5-/7-------|
D--------------------------------------------------------------------|
A-(10-12-7-8)--------------------------------------------------------|
E--------------------------------------------------------------------|

E--------------------------------------------------------------------|
B---------9-9-9-9-/6-6-6~--5-6-3-5-----------------------------------|
G-5-5-/7~--------------------------5-7-3-5-3-2-3-0-2-----------------|
D----------------------------------------------------3-5-2-3-0-2-----|
A--------------------------------------------------------------------|
E--------------------------------------------------------------------|

Chorus :
      X 4
E------------ ---------------------------|
B------------ ---------------------------|
G---7---3---- -------13--10-----9----7---|
D---7---3---- ---12-------------9----7---|
A---5---1---- ------------------7----5---|
E------------ ---------------------------|


Verse X 5
Break1
Verse X 3
Break2
Chorus
Verse X 2
Break1
Comments