Godhead - Eleanor Rigby Chords & Tabs

 

Eleanor Rigby Chords & Tabs

Godhead Chords & Tabs

Version: 2 Type: Tab 0 ratings
1 star 2 stars 3 stars 4 stars 5 stars
comments

Eleanor Rigby Tab

   
ELEANOR RIGBY  [Power Tool Stigmata]


Created by The Peach 
email: the_peach@herzeleid.net

http://godhead.hollowgen.net

[ Tab from: http://www.guitartabs.cc/tabs/g/godhead/eleanor_rigby_tab_ver_2.html ]
Intro and Verse
  Em        C
|---------|---------|
|---------|-------1-|
|-------0-|-----0---|
|-----2---|---2-----|
|---2-----|-3-------|
|-0-------|---------|

Main/Chorus
  Em7   Em6   C     Em
|-0-----0-------------|
|-3-----2-----1-------|
|-0-----0-----0-----0-|
|-2-----2-----2-----2-|
|-2-----2-----3-----2-|
|-0-----0-----------0-| 

Comments