Godhead - Eleanor Rigby Chords & Tabs

 

Eleanor Rigby Chords & Tabs

Godhead Chords & Tabs

Version: 1 Type: Tab 0 ratings
1 star 2 stars 3 stars 4 stars 5 stars
comments

Eleanor Rigby Tab

Eleanor Rigby

tabbed by weavea03@excite.com
          
Intro:
|-----------------------|-----------------------------------------
|-----------------------|-----------------------------------------
|-----------------------|-----------------------------------------
|--12--11--10-----2-----|---12--11--10---2-2-2-2-2-2-2-2----------
|--12--11--10-----2-----|---12--11--10---2-2-2-2-2-2-2-2----------
|-----------------------|-----------------------------------------

[ Tab from: http://www.guitartabs.cc/tabs/g/godhead/eleanor_rigby_tab.html ]
Verse:           
 
play softly      let 12 ring with tremo          
|--------0-------12~~~~~~~-
|-----0--------------------
|--0-----------------------
|--------------------------
|--------------------------
|--------------------------


Chorus:
          
|----------------------------------------------------------------------------------
|----------------------------------------------------------------------------------
|----------------------------------------------------------------------------------
|--10-10-10-10-10-10-10-10-10-10-10-10-10-10-10-10--2-2-2-2-2-2-2-2-2-2-2-2-2-2-2-2
|--10-10-10-10-10-10-10-10-10-10-10-10-10-10-10-10--2-2-2-2-2-2-2-2-2-2-2-2-2-2-2-2
|----------------------------------------------------------------------------------

wow thats it

Comments