Godhead - Eleanor Rigby Chords & Tabs

 

Eleanor Rigby Chords & Tabs

Godhead Chords & Tabs

Version: 1 Type: Bass Tab 0 ratings
1 star 2 stars 3 stars 4 stars 5 stars
comments

Eleanor Rigby Bass Tab

ELEANOR RIGBY bass [2000 Years of Human Error]


Email: twiggy1996@aol.com

http://godhead.hollowgen.net


Standard tuning

(Beginning and throughout the song)
G--------------------------------------------------------------------
D--------------------------------------------------------------------
A--5-5-5-5-5-5-5-5--4-4-4-4-4-4-4-4--3-3-3-3-3-3-3-3-----------------
E-----------------------------------------------------0-0-0-0-0-0-0-0
[ Tab from: http://www.guitartabs.cc/tabs/g/godhead/eleanor_rigby_btab.html ]
(When Jason sings and the bass is playing. Listen to the song and
figure out timing)
G------------------------------------------------------
D------------------------------------------------------
A-------------------------3-3-3-3-3-3-3-3-3-3-3-3-3-3-3
E-0--0-0-00---0-0-00---00------------------------------

(When he sings "Ah look at all the lonely people" towards the
end of the song)
G---------------------------------------------------------------
D---------------------------------------------------------------
A-5-5-5-5-5-5-5-5--4-4-4-4-4-4-4-4--3-3-3-3-3-3-3-3--2-3-2------
E----------------------------------------------------------0-0-0
Comments