God Lives Underwater - Still Chords & Tabs

 

Still Chords & Tabs

God Lives Underwater Chords & Tabs

Version: 1 Type: Tab 0 ratings
1 star 2 stars 3 stars 4 stars 5 stars
comments

Still Tab

Band: God Lives Underwater
Song: Still

I'm Steve, Email me at lbk_7787@yahoo.com for your input.

Drop D tuning

p - pull off

Distortion

Intro

E|-------------------------------|
B|-------------------------------|
G|-------------------------------|
D|-------------------------------|
A|-------------------------------|
D|---3---------------------------|

E|-------------------------------|
B|-------------------------------|
G|-------------------------------|
D|-------------------------------|
A|---0---------------------------|
D|-------------------------------|

Verse

E|-------------------------------|
B|-------------------------------|
G|-------------------------------|
D|-------------------------------|
A|-------------------------------|
D|---0---3--p0---5--p3--p0---3---|
[ Tab from: http://www.guitartabs.cc/tabs/g/god_lives_underwater/still_tab.html ]
E|-------------------------------|
B|-------------------------------|
G|-------------------------------|
D|-------------------------------|
A|------3--p0---0---3------------|
D|--0-------------------7--7--5--|

Chorus

E|-------------------------------|
B|-------------------------------|
G|-------------------------------|
D|-------------------------------|
A|-------------------------------|
D|----3--------------3-x-2-x-1---|

E|-------------------------------|
B|-------------------------------|
G|-------------------------------|
D|-------------------------------|
A|----------------------/8---8---|
D|----0--------------------------|


Order:

Intro 3x
Verse 4x
Chorus 4x
Verse 3x
Chorus 4x
Verse 4x
Chorus 9x
Verse 8x

Lyrics:

Where your at
you shouldn't be
although i wish i was there too
back and forth
through the course
of the last few years
my mind is not made up
still

do you lie
to everyone
you dont have to lie to me
is your sight
without light
you can't see me
still

my mind is not made up (9x)
still
Comments