God Forbid - End Of The World Chords & Tabs

 

End Of The World Chords & Tabs

God Forbid Chords & Tabs

Version: 2 Type: Tab

End Of The World Tab

   
Band : God Forbid
Song: The End Of The World
Album: IV: Consitution Of Treason - Century Media (2005)


p - pull off
< - pickscrape
^ - half bend
^^ - bend up and down really fast
.. - Palm mute
~ - let note ring

Intro :

Clean;

D|----------------------------------------------------5-5-----|
A|-----------------------------------------------------4------|
F|---10-9--7-6-7-7--12-12-10^---10-9--7-6-7-7-3-3-5^----------|
C|----0-0--0-0-0-0---0--0--0-----0-0--0-0-0-0-0-0-0-----------|
G|------------------------------------------------------------|
C|------------------------------------------------------------|


|-----------------------------------------------------------|
|-----------------------------------------------------------|
|-----------------------------------------------------------| [ Tab from: http://www.guitartabs.cc/tabs/g/god_forbid/end_of_the_world_tab_ver_2.html ]
D|-----------------------------------------------|
A|-----------------------------------------------|
F|-------------------------------------7h5h7-9^^-|
C|--3-3-3--3333-3333-33-3--3h2h3-3h2p0-----------|
G|--3-3-3--3333-3333-33-3--3h2h3-3h2p0-----------|
C|--3-3-3--3333-3333-33-3--3h2h3-3h2p0-----------|
    . . .  .... .... .. .
    
D|-----------------------------------------------------|
A|-----------------------------------------------------|
F|-----------------------------------------------------|
C|--3-3-3--3333-3333-33-3--3h2h3-3h2p0-----------------|
G|--3-3-3--3333-3333-33-3--3h2h3-3h2p0-----------------|
C|--3-3-3--3333-3333-33-3--3h2h3-3h2p0-7h5h7-3^^--3*^--|
    . . .  .... .... .. .
    

 ------------------------ ^REPEAT^ ------------------------------------







Interlude:

D|------------------------|
A|------------------------|
F|------------------------|
C|-0-------0-------0------|
G|-0-------0-------0------|
C|-0--7^^--0--5^^--0--3^^-|

Chorus:

D|-------------------------------------|
A|-------------------------------------|
F|-------------------------------------|
C|--000-0~---77-66--1-000--------------| x 2 then...
G|--000-0~----------1-000--------------|
C|--000-0~----------0-000-0-5-7-5-8^^--|
    ...               ...

Solo Interlude (main riff):

|-----------------------------------------------------------|
|-----------------------------------------------------------|
|-----------------------------------------------------------| C|-3333333-2222222-0|
G|-3333333-2222222-0|
C|-3333333-2222222-0|
   ....... .......


outro:

D|-------------------------|
A|-------------------------|
F|-------------------------| x 5
C|-00-000-00-000-00-000----|
G|-00-000-00-000-00-000----|
C|-00-000-00-000-00-000----|
   

end on this

D|----------------|
A|----------------|
F|----------------|
C|--2~------------|
G|--2~------------|
C|--2~------------|

There you go, please rate this