God Forbid - Crucify Your Beliefs Chords & Tabs

 

Crucify Your Beliefs Chords & Tabs

God Forbid Chords & Tabs

Version: 2 Type: Tab

Crucify Your Beliefs Tab

   
----------------------------------------------------------------------------
		   Crucify Your Beliefs - God Forbid
----------------------------------------------------------------------------

Tabbed by: teenguitargod

Email: bigdog5555@comcast.net

!!!updated 7/06/06!!!

Tuning: drop C

guitar 1: clean (CGCFAD)
guitar 2: clean (CGCFAD)

alright....this is an amazing intro for one of the best bands of their genra.  This is
first tab but im positive that this is 99.9% correct cause i tabbed it out myself and
it w/ the song and it went perfectly.

Part 1:

G1
e|--------------------------------------------------------------------------|
B|-3----3----3/8---7----7----7/4---3----3----1---1/3----3----3--------------|
G|----------------------------------------------------------------X3--------|
D|---00---00-----0---00---00-----0---00---00---0-----00---00---0------------|
A|--------------------------------------------------------------------------|
E|--------------------------------------------------------------------------|

G2(comes in #2 of ^)
e|--------------------------------------------------------------------------|
B|-7----7----7/11---10----10----8---7----7----5---5/7----7----7-------------|
G|-----------------------------------------------------------------X1-------|
D|---00---00------0----00----00---0---00---00---0-----00---00---0-----------|
A|--------------------------------------------------------------------------|
E|--------------------------------------------------------------------------|

Part 2 (both guitars play directly after Part 1)

G1
e|--------------------------------------------------------------------------|
B|-3----3----3/8---7----7----7/11---10----10----8/7----7----7---------------|
G|--------------------------------------------------------------------------|
D|---00---00-----0---00---00------0----00----00-----00---00---0-------------|
A|--------------------------------------------------------------------------|
E|--------------------------------------------------------------------------|
[ Tab from: http://www.guitartabs.cc/tabs/g/god_forbid/crucify_your_beliefs_tab_ver_2.html ]
G2
e|--------------------------------------------------------------------------|
B|-7----7----7/11---10----10----10/15---14---14----11/10----10----10--------|
G|--------------------------------------------------------------------------|
D|---00---00------0----00----00-------0----00---00-------00----00----0------|
A|--------------------------------------------------------------------------|
E|--------------------------------------------------------------------------|

Part 3 (play part 1 only one time, and then part 2 again)

G1
e|--------------------------------------------------------------------------|
B|-3----3----3/8---7----7----7/4---3----3----1---1/3----3----3--------------|
G|----------------------------------------------------------------X3--------|
D|---00---00-----0---00---00-----0---00---00---0-----00---00---0------------|
A|--------------------------------------------------------------------------|
E|--------------------------------------------------------------------------|

G2
e|--------------------------------------------------------------------------|
B|-7----7----7/11---10----10----8---7----7----5---5/7----7----7-------------|
G|-----------------------------------------------------------------X1-------|
D|---00---00------0----00----00---0---00---00---0-----00---00---0-----------|
A|--------------------------------------------------------------------------|
E|--------------------------------------------------------------------------|

G1
e|--------------------------------------------------------------------------|
B|-3----3----3/8---7----7----7/11---10----10----8/7----7----7---------------|
G|--------------------------------------------------------------------------|
D|---00---00-----0---00---00------0----00----00-----00---00---0-------------|
A|--------------------------------------------------------------------------|
E|--------------------------------------------------------------------------|

G2
e|--------------------------------------------------------------------------|
B|-7----7----7/11---10----10----10/15---14---14----11/10----10----10--------|
G|--------------------------------------------------------------------------|
D|---00---00------0----00----00-------0----00---00-------00----00----0------|
A|--------------------------------------------------------------------------|
E|--------------------------------------------------------------------------|

and thats all i got for now, but ill keep updating it.

| /  slide up
|   slide down
| h  hammer-on
| p  pull-off
| ~  vibrato
| +  harmonic
| x  Mute note
============================================================================