God Forbid - Antihero Chords & Tabs

 

Antihero Chords & Tabs

God Forbid Chords & Tabs

Version: 2 Type: Tab 0 ratings
1 star 2 stars 3 stars 4 stars 5 stars
comments

Antihero Tab

Artist:God Forbid
Song:Antihero
Tabbed by:Byrnie
Tuning:DADGBe

This song kills so heres what I figured out.

              3X                                  ending               2X

e---------------------------------------|--------------------------|---------|
B---------------------------------------|--------------------------|---------|
G---------------------------------------|--------------------------|---------|
D---------------------------------------|------8-7-5-------7~------|---------|
A---------------------------------------|-1----------8-7-8---------|-3/5-----|
D--5-5-5-8-5-5-7-5--5-3/5-5-5-8-5-5-7-5-|-1------------------------|-3/5-5-5-|
[ Tab from: http://www.guitartabs.cc/tabs/g/god_forbid/antihero_tab_ver_2.html ]
---------------------------------------------------------------------------|
---------------------------------------------------------------------------|
---------------------------------------------------------------------------|
-----------------------------------------------------------8-7-5-------7~--|
-------------3/5-----------------3/5------------------1----------8-7-8-----|
-8-5-5-7-5-5-3/5-5-5-8-5-5-7-5-5-3/5-5-5-8-5-5-7-5-5--1--------------------|

|-------------------------------------------------|--------------------------|
|-------------------------------------------------|--------------------------|
|---------------------------------------------0---|--------------------------|
|---------------------------------------------0---|--------------------------|
|--5-5-1-3--0-0-8-0-0-8-7--0-0-10-10-12-13-13-----|--5-5-1-3--0-0-8-0-0-8-7--|
|--5-5-1-3--0-0-8-0-0-8-7--0-0-10-10-12-13-13-----|--5-5-1-3--0-0-8-0-0-8-7--|


                                                       2X
|-----------------------------------|-------------|-------------------------|
|-----------------------------------|-------------|-------------------------|
|-----------------------------------|-------------|---3-2------------3-2----|
|-----------------------------------|-------------|-------3--------------3--|
|-0-0-10-10-12-13-----18-----18-17~-|-5-5-5-5-3-5-|-1----------1------------|
|-0-0-10-10-12-13-0-0----0-0--------|-5-5-5-5-3-5-|-1--------0-1-0-0--------|


I have to go but Ill tab the rest real soon!
Comments