God Dethroned - Fire Breath Chords & Tabs

 

Fire Breath Chords & Tabs

God Dethroned Chords & Tabs

Version: 1 Type: Tab 0 ratings
1 star 2 stars 3 stars 4 stars 5 stars
comments

Fire Breath Tab

   
'Fire-breath' as performed by God Dethroned
 on their album 'Bloody Blasphemy'

Corrections, etc.:parisc97@erols.com
www.theblackdeath.cjb.net

Tune all strings down one whole step (DGCFAd)

/ = slide up   t = trill  ~ = vibrato, or hold Palm Mute where else necessary.

    RIFF A 2x
e |-----------------------------------------------------------------------|
B |-----------------------------------------------------------------------|
G |-----------------------------------------------------------------------|
D |------9-7-9-----10------9------10/12------9-7-9------10------9------5/7|
A |------7-5-7------8------7-------8/10------7-5-7-------8------7------3/5|
E |-0000-------0000----0000---0000-------0000-------0000----0000---0000---|

   RIFF B with lyrics (4x) (...forget my name) tremolo picking all the way
e |-----------------------------------|
B |-----------------------------------| "Firebreathing through your unsiegable fortress.
G |------2---4-5----------------------| I'm the devil and Michael De Ruyter's my name.
D |--------2-------3-2----------------| I ride on the waves, right thought your chains.
A |--------------------0---5-----3----| You are my pray and you'll never forget my name."
E |-0--------------------3---3-1---1--|

  RIFF C 3x, tremolo picking
e |-------------------------------------------------| "A firebreath, a crimson sky,
B |-------------------------------------------------| in the land of fire 
G |-------------------------------------------------| you will die. /
D |---------10----------9----------10-9-7-----------| The English pride,
A |---7-8-7-------7-8-7------7-8-7--------9-10-9-7--| consumed by flames,
E |0-----------0----------0-------------------------| you'll never forget my name."

   BREAK A
e |----------------------------------|
B |----------------------------------|
G |----------------------------------|
D |----------------------------------|
A |----7-9-7-5-5-7-5-3--5-3-2-3-2(2)-|
E |-000--------------------------(0)-|
[ Tab from: http://www.guitartabs.cc/tabs/g/god_dethroned/fire_breath_tab.html ]
RIFF A with lyrics (2x) FIREBREATH, spitting forks of fire.
                        FIREBREATH, attacking a crumbing empire.
                        FIREBREATH, the Dutchman's anger.
                        FIREBREATH, a fire's breath.
RIFF B with lyrics (4x)
The voyage to Chat-ham. In 1667. / The three day war, never equaled again.
Capture the Royal Charles, the English flagship. / The river Thames,
                                                    the bleeding English heart.
RIFF C 2x, 2x with lyrics: A firebreath, a crimson sky, in the land of fire...
RIFF B with lyrics (4x)
A thousand cannonballs, rain down on my deck.
Of the Seven Provinces, the republic's battleship number one.
But they do no harm, cause Satan's wings protect.
His servant's life, from the English last convulsion.

   BREAK B
e |----------------------------------------------------------------|
B |*--------------------------------------------------------------*|
G |-2--------------------------5---------5-----5-5/7-7-------------|
D |-2--------------------------5---------5-----5-5/7-7-------------|
A |*0--------------------------3---------3-----3-3/5-5------------*|
E |----------------------------------------------------------------|
  |
e |----------------------------------------------------------------|
B |*--------------------------------------------------------------*|
G |----------------------------------------------------------------|
D |---7--77-7-9-10-9-12--9-10--------------------------------------|
A |*--------------------------------------------------------------*|
E |----------------------------------------------------------------|

e |----------------------------------------------------------------|
B |*--------------------------------------------------------------*|
G |----------------------------------------------------------------|
D |-7-77-7-9-10-12-14-12-10~------10~----10-10-12-12---------------|
A |*--------------------------------------------------------------*|
E |----------------------------------------------------------------|


e |------------------------------------------------------------------
B |------------------------------------------------------------------
G |------------------------------------------------17-16-14-12-------
D |--14~~~~---------7-9-10~-10-9-10---10-9-7-5-7~--------------14-14-
A |-----------10-12--------------------------------------------------
E |------------------------------------------------------------------
          P.M...........
e -----------------------------------------------------------------
B ------------------------------------------------------------17-15
G -1716141214------------------------------------------------------
D -----------14~~-----------7-9-10~-10-9--10~---10-9-7-5-7~--------
A --------------------12-10----------------------------------------
E -----------------------------------------------------------------
Palm Mute             ........

e --------------------------------------|--------------------------|
B -13-12-13~--17-15-13-12-13-15-10~~~~--|--------------------------|
G --------------------------------------|------RIFF B--------------|
D --------------------------------------|--------------------------|
A --------------------------------------|------------00000000000---|
E --------------------------------------|--------------------------|

RIFF B 4x
RIFF C 2x, 2x with lyrics, Break A (A firebreath, A crimson sky...)
RIFF A 4x with lyrics  (Firebreath, spitting forks of fire. Firebreath, attacking a crumbing empire...)
Comments